ISO-10303-21;
HEADER;
FILE_DESCRIPTION (( 'STEP AP203' ),
    '1' );
FILE_NAME ('Web Model 45569_49645.step',
    '2019-01-07T15:35:30',
    ( '' ),
    ( '' ),
    'SwSTEP 2.0',
    'SolidWorks 2016',
    '' );
FILE_SCHEMA (( 'CONFIG_CONTROL_DESIGN' ));
ENDSEC;

DATA;
#1 = DATE_AND_TIME ( #88, #112 ) ;
#2 = PERSON_AND_ORGANIZATION ( #27, #115 ) ;
#3 = CARTESIAN_POINT ( 'NONE',  ( -15.00000000000000000, 0.0000000000000000000, 1.500000000000000000 ) ) ;
#4 = PLANE ( 'NONE',  #73 ) ;
#5 = DIRECTION ( 'NONE',  ( -0.0000000000000000000, -0.0000000000000000000, -1.000000000000000000 ) ) ;
#6 = VERTEX_POINT ( 'NONE', #86 ) ;
#7 = CARTESIAN_POINT ( 'NONE',  ( 0.0000000000000000000, 0.0000000000000000000, -1.500000000000000000 ) ) ;
#8 = LOCAL_TIME ( 10, 35, 30.00000000000000000, #66 ) ;
#9 = PRODUCT_DEFINITION ( 'UNKNOWN', '', #62, #170 ) ;
#10 = APPROVAL_STATUS ( 'not_yet_approved' ) ;
#11 = CC_DESIGN_APPROVAL ( #58, ( #9 ) ) ;
#12 = PERSON_AND_ORGANIZATION ( #27, #115 ) ;
#13 = CARTESIAN_POINT ( 'NONE',  ( 0.0000000000000000000, 0.0000000000000000000, -1.500000000000000000 ) ) ;
#14 =( NAMED_UNIT ( * ) SI_UNIT ( $, .STERADIAN. ) SOLID_ANGLE_UNIT ( ) );
#15 = APPROVAL_PERSON_ORGANIZATION ( #71, #91, #162 ) ;
#16 = DATE_AND_TIME ( #44, #80 ) ;
#17 = CLOSED_SHELL ( 'NONE', ( #90, #35, #147, #150 ) ) ;
#18 = APPLICATION_PROTOCOL_DEFINITION ( 'international standard', 'config_control_design', 1994, #65 ) ;
#19 = LOCAL_TIME ( 10, 35, 30.00000000000000000, #70 ) ;
#20 = CC_DESIGN_APPROVAL ( #91, ( #62 ) ) ;
#21 = APPROVAL_STATUS ( 'not_yet_approved' ) ;
#22 = VECTOR ( 'NONE', #104, 1000.000000000000000 ) ;
#23 = ORIENTED_EDGE ( 'NONE', *, *, #168, .T. ) ;
#24 = EDGE_CURVE ( 'NONE', #128, #125, #92, .T. ) ;
#25 = DIRECTION ( 'NONE',  ( 0.0000000000000000000, 0.0000000000000000000, 1.000000000000000000 ) ) ;
#26 = APPROVAL_DATE_TIME ( #137, #91 ) ;
#27 = PERSON ( 'UNSPECIFIED', 'UNSPECIFIED', 'UNSPECIFIED', ('UNSPECIFIED'), ('UNSPECIFIED'), ('UNSPECIFIED') ) ;
#28 = DIRECTION ( 'NONE',  ( 1.000000000000000000, 0.0000000000000000000, 0.0000000000000000000 ) ) ;
#29 = DIRECTION ( 'NONE',  ( 0.0000000000000000000, 0.0000000000000000000, 1.000000000000000000 ) ) ;
#30 = CIRCLE ( 'NONE', #102, 15.00000000000000000 ) ;
#31 = CC_DESIGN_PERSON_AND_ORGANIZATION_ASSIGNMENT ( #39, #165, ( #62 ) ) ;
#32 = APPLICATION_PROTOCOL_DEFINITION ( 'international standard', 'config_control_design', 1994, #108 ) ;
#33 = CYLINDRICAL_SURFACE ( 'NONE', #133, 15.00000000000000000 ) ;
#34 = DIRECTION ( 'NONE',  ( 1.000000000000000000, 0.0000000000000000000, 0.0000000000000000000 ) ) ;
#35 = ADVANCED_FACE ( 'NONE', ( #134 ), #33, .T. ) ;
#36 = SECURITY_CLASSIFICATION ( '', '', #57 ) ;
#37 = FACE_OUTER_BOUND ( 'NONE', #146, .T. ) ;
#38 = APPROVAL_DATE_TIME ( #142, #124 ) ;
#39 = PERSON_AND_ORGANIZATION ( #27, #115 ) ;
#40 = CARTESIAN_POINT ( 'NONE',  ( 0.0000000000000000000, 0.0000000000000000000, 1.500000000000000000 ) ) ;
#41 = CC_DESIGN_PERSON_AND_ORGANIZATION_ASSIGNMENT ( #85, #49, ( #163 ) ) ;
#42 = DIRECTION ( 'NONE',  ( -0.0000000000000000000, -0.0000000000000000000, -1.000000000000000000 ) ) ;
#43 = APPROVAL_STATUS ( 'not_yet_approved' ) ;
#44 = CALENDAR_DATE ( 2019, 7, 1 ) ;
#45 = DIRECTION ( 'NONE',  ( 1.000000000000000000, 0.0000000000000000000, 0.0000000000000000000 ) ) ;
#46 = UNCERTAINTY_MEASURE_WITH_UNIT (LENGTH_MEASURE( 1.000000000000000100E-005 ), #152, 'distance_accuracy_value', 'NONE');
#47 = CC_DESIGN_DATE_AND_TIME_ASSIGNMENT ( #16, #100, ( #9 ) ) ;
#48 = COORDINATED_UNIVERSAL_TIME_OFFSET ( 5, 0, .BEHIND. ) ;
#49 = PERSON_AND_ORGANIZATION_ROLE ( 'design_owner' ) ;
#50 = ORIENTED_EDGE ( 'NONE', *, *, #168, .F. ) ;
#51 = CC_DESIGN_APPROVAL ( #124, ( #36 ) ) ;
#52 = FACE_OUTER_BOUND ( 'NONE', #98, .T. ) ;
#53 = CIRCLE ( 'NONE', #111, 15.00000000000000000 ) ;
#54 = CARTESIAN_POINT ( 'NONE',  ( 0.0000000000000000000, 0.0000000000000000000, 1.500000000000000000 ) ) ;
#55 = CARTESIAN_POINT ( 'NONE',  ( 0.0000000000000000000, 0.0000000000000000000, 1.500000000000000000 ) ) ;
#56 = CIRCLE ( 'NONE', #141, 15.00000000000000000 ) ;
#57 = SECURITY_CLASSIFICATION_LEVEL ( 'unclassified' ) ;
#58 = APPROVAL ( #10, 'UNSPECIFIED' ) ;
#59 = EDGE_LOOP ( 'NONE', ( #123, #113, #61, #23 ) ) ;
#60 = MECHANICAL_CONTEXT ( 'NONE', #108, 'mechanical' ) ;
#61 = ORIENTED_EDGE ( 'NONE', *, *, #24, .T. ) ;
#62 = PRODUCT_DEFINITION_FORMATION_WITH_SPECIFIED_SOURCE ( 'ANY', '', #163, .NOT_KNOWN. ) ;
#63 = EDGE_CURVE ( 'NONE', #128, #6, #30, .T. ) ;
#64 = ORIENTED_EDGE ( 'NONE', *, *, #24, .F. ) ;
#65 = APPLICATION_CONTEXT ( 'configuration controlled 3d designs of mechanical parts and assemblies' ) ;
#66 = COORDINATED_UNIVERSAL_TIME_OFFSET ( 5, 0, .BEHIND. ) ;
#67 = ORIENTED_EDGE ( 'NONE', *, *, #144, .F. ) ;
#68 = CARTESIAN_POINT ( 'NONE',  ( 0.0000000000000000000, 0.0000000000000000000, 1.500000000000000000 ) ) ;
#69 = CARTESIAN_POINT ( 'NONE',  ( 15.00000000000000000, 1.836970198721029600E-015, 1.500000000000000000 ) ) ;
#70 = COORDINATED_UNIVERSAL_TIME_OFFSET ( 5, 0, .BEHIND. ) ;
#71 = PERSON_AND_ORGANIZATION ( #27, #115 ) ;
#72 = DIRECTION ( 'NONE',  ( 0.0000000000000000000, 0.0000000000000000000, 1.000000000000000000 ) ) ;
#73 = AXIS2_PLACEMENT_3D ( 'NONE', #149, #109, #77 ) ;
#74 = DIRECTION ( 'NONE',  ( -1.000000000000000000, 0.0000000000000000000, 0.0000000000000000000 ) ) ;
#75 = FACE_OUTER_BOUND ( 'NONE', #175, .T. ) ;
#76 = EDGE_CURVE ( 'NONE', #6, #128, #53, .T. ) ;
#77 = DIRECTION ( 'NONE',  ( 1.000000000000000000, 0.0000000000000000000, -0.0000000000000000000 ) ) ;
#78 = MANIFOLD_SOLID_BREP ( 'Boss-Extrude1', #17 ) ;
#79 = AXIS2_PLACEMENT_3D ( 'NONE', #121, #87, #45 ) ;
#80 = LOCAL_TIME ( 10, 35, 30.00000000000000000, #127 ) ;
#81 = CALENDAR_DATE ( 2019, 7, 1 ) ;
#82 = DIRECTION ( 'NONE',  ( -1.000000000000000000, 0.0000000000000000000, 0.0000000000000000000 ) ) ;
#83 = DIRECTION ( 'NONE',  ( -0.0000000000000000000, -0.0000000000000000000, -1.000000000000000000 ) ) ;
#84 = AXIS2_PLACEMENT_3D ( 'NONE', #40, #107, #99 ) ;
#85 = PERSON_AND_ORGANIZATION ( #27, #115 ) ;
#86 = CARTESIAN_POINT ( 'NONE',  ( 15.00000000000000000, 1.836970198721029600E-015, 1.500000000000000000 ) ) ;
#87 = DIRECTION ( 'NONE',  ( 0.0000000000000000000, 0.0000000000000000000, 1.000000000000000000 ) ) ;
#88 = CALENDAR_DATE ( 2019, 7, 1 ) ;
#89 = CARTESIAN_POINT ( 'NONE',  ( 15.00000000000000000, 1.836970198721029600E-015, -1.500000000000000000 ) ) ;
#90 = ADVANCED_FACE ( 'NONE', ( #75 ), #157, .T. ) ;
#91 = APPROVAL ( #21, 'UNSPECIFIED' ) ;
#92 = LINE ( 'NONE', #97, #22 ) ;
#93 = APPROVAL_ROLE ( '' ) ;
#94 = ORIENTED_EDGE ( 'NONE', *, *, #119, .T. ) ;
#95 = PLANE ( 'NONE',  #84 ) ;
#96 = LOCAL_TIME ( 10, 35, 30.00000000000000000, #160 ) ;
#97 = CARTESIAN_POINT ( 'NONE',  ( -15.00000000000000000, 0.0000000000000000000, 1.500000000000000000 ) ) ;
#98 = EDGE_LOOP ( 'NONE', ( #50, #67 ) ) ;
#99 = DIRECTION ( 'NONE',  ( 1.000000000000000000, 0.0000000000000000000, -0.0000000000000000000 ) ) ;
#100 = DATE_TIME_ROLE ( 'creation_date' ) ;
#101 = DATE_AND_TIME ( #130, #8 ) ;
#102 = AXIS2_PLACEMENT_3D ( 'NONE', #54, #25, #145 ) ;
#103 = PERSON_AND_ORGANIZATION ( #27, #115 ) ;
#104 = DIRECTION ( 'NONE',  ( -0.0000000000000000000, -0.0000000000000000000, -1.000000000000000000 ) ) ;
#105 = DATE_TIME_ROLE ( 'classification_date' ) ;
#106 = CARTESIAN_POINT ( 'NONE',  ( 0.0000000000000000000, 0.0000000000000000000, 1.500000000000000000 ) ) ;
#107 = DIRECTION ( 'NONE',  ( 0.0000000000000000000, 0.0000000000000000000, 1.000000000000000000 ) ) ;
#108 = APPLICATION_CONTEXT ( 'configuration controlled 3d designs of mechanical parts and assemblies' ) ;
#109 = DIRECTION ( 'NONE',  ( 0.0000000000000000000, 0.0000000000000000000, 1.000000000000000000 ) ) ;
#110 = ORIENTED_EDGE ( 'NONE', *, *, #76, .F. ) ;
#111 = AXIS2_PLACEMENT_3D ( 'NONE', #106, #29, #28 ) ;
#112 = LOCAL_TIME ( 10, 35, 30.00000000000000000, #48 ) ;
#113 = ORIENTED_EDGE ( 'NONE', *, *, #63, .F. ) ;
#114 = AXIS2_PLACEMENT_3D ( 'NONE', #7, #120, #139 ) ;
#115 = ORGANIZATION ( 'UNSPECIFIED', 'UNSPECIFIED', '' ) ;
#116 = PERSON_AND_ORGANIZATION_ROLE ( 'creator' ) ;
#117 = CIRCLE ( 'NONE', #114, 15.00000000000000000 ) ;
#118 = ORIENTED_EDGE ( 'NONE', *, *, #144, .T. ) ;
#119 = EDGE_CURVE ( 'NONE', #6, #161, #122, .T. ) ;
#120 = DIRECTION ( 'NONE',  ( 0.0000000000000000000, 0.0000000000000000000, 1.000000000000000000 ) ) ;
#121 = CARTESIAN_POINT ( 'NONE',  ( 0.0000000000000000000, 0.0000000000000000000, 0.0000000000000000000 ) ) ;
#122 = LINE ( 'NONE', #69, #164 ) ;
#123 = ORIENTED_EDGE ( 'NONE', *, *, #119, .F. ) ;
#124 = APPROVAL ( #43, 'UNSPECIFIED' ) ;
#125 = VERTEX_POINT ( 'NONE', #135 ) ;
#126 = PRODUCT_DEFINITION_SHAPE ( 'NONE', 'NONE',  #9 ) ;
#127 = COORDINATED_UNIVERSAL_TIME_OFFSET ( 5, 0, .BEHIND. ) ;
#128 = VERTEX_POINT ( 'NONE', #3 ) ;
#129 = CC_DESIGN_DATE_AND_TIME_ASSIGNMENT ( #101, #105, ( #36 ) ) ;
#130 = CALENDAR_DATE ( 2019, 7, 1 ) ;
#131 = APPROVAL_DATE_TIME ( #1, #58 ) ;
#132 = CC_DESIGN_PERSON_AND_ORGANIZATION_ASSIGNMENT ( #2, #155, ( #9 ) ) ;
#133 = AXIS2_PLACEMENT_3D ( 'NONE', #68, #42, #74 ) ;
#134 = FACE_OUTER_BOUND ( 'NONE', #59, .T. ) ;
#135 = CARTESIAN_POINT ( 'NONE',  ( -15.00000000000000000, 0.0000000000000000000, -1.500000000000000000 ) ) ;
#136 = APPROVAL_PERSON_ORGANIZATION ( #12, #124, #151 ) ;
#137 = DATE_AND_TIME ( #154, #96 ) ;
#138 = PERSON_AND_ORGANIZATION_ROLE ( 'classification_officer' ) ;
#139 = DIRECTION ( 'NONE',  ( 1.000000000000000000, 0.0000000000000000000, 0.0000000000000000000 ) ) ;
#140 = CC_DESIGN_SECURITY_CLASSIFICATION ( #36, ( #62 ) ) ;
#141 = AXIS2_PLACEMENT_3D ( 'NONE', #13, #72, #34 ) ;
#142 = DATE_AND_TIME ( #81, #19 ) ;
#143 = ORIENTED_EDGE ( 'NONE', *, *, #63, .T. ) ;
#144 = EDGE_CURVE ( 'NONE', #161, #125, #56, .T. ) ;
#145 = DIRECTION ( 'NONE',  ( 1.000000000000000000, 0.0000000000000000000, 0.0000000000000000000 ) ) ;
#146 = EDGE_LOOP ( 'NONE', ( #143, #169 ) ) ;
#147 = ADVANCED_FACE ( 'NONE', ( #37 ), #95, .T. ) ;
#148 =( GEOMETRIC_REPRESENTATION_CONTEXT ( 3 ) GLOBAL_UNCERTAINTY_ASSIGNED_CONTEXT ( ( #46 ) ) GLOBAL_UNIT_ASSIGNED_CONTEXT ( ( #152, #166, #14 ) ) REPRESENTATION_CONTEXT ( 'NONE', 'WORKASPACE' ) );
#149 = CARTESIAN_POINT ( 'NONE',  ( 0.0000000000000000000, 0.0000000000000000000, -1.500000000000000000 ) ) ;
#150 = ADVANCED_FACE ( 'NONE', ( #52 ), #4, .F. ) ;
#151 = APPROVAL_ROLE ( '' ) ;
#152 =( LENGTH_UNIT ( ) NAMED_UNIT ( * ) SI_UNIT ( .MILLI., .METRE. ) );
#153 = SHAPE_DEFINITION_REPRESENTATION ( #126, #156 ) ;
#154 = CALENDAR_DATE ( 2019, 7, 1 ) ;
#155 = PERSON_AND_ORGANIZATION_ROLE ( 'creator' ) ;
#156 = ADVANCED_BREP_SHAPE_REPRESENTATION ( 'Web Model 45569_49645', ( #78, #79 ), #148 ) ;
#157 = CYLINDRICAL_SURFACE ( 'NONE', #159, 15.00000000000000000 ) ;
#158 = PRODUCT_RELATED_PRODUCT_CATEGORY ( 'detail', '', ( #163 ) ) ;
#159 = AXIS2_PLACEMENT_3D ( 'NONE', #55, #5, #82 ) ;
#160 = COORDINATED_UNIVERSAL_TIME_OFFSET ( 5, 0, .BEHIND. ) ;
#161 = VERTEX_POINT ( 'NONE', #89 ) ;
#162 = APPROVAL_ROLE ( '' ) ;
#163 = PRODUCT ( 'Web Model 45569_49645', 'Web Model 45569_49645', '', ( #60 ) ) ;
#164 = VECTOR ( 'NONE', #83, 1000.000000000000000 ) ;
#165 = PERSON_AND_ORGANIZATION_ROLE ( 'design_supplier' ) ;
#166 =( NAMED_UNIT ( * ) PLANE_ANGLE_UNIT ( ) SI_UNIT ( $, .RADIAN. ) );
#167 = APPROVAL_PERSON_ORGANIZATION ( #103, #58, #93 ) ;
#168 = EDGE_CURVE ( 'NONE', #125, #161, #117, .T. ) ;
#169 = ORIENTED_EDGE ( 'NONE', *, *, #76, .T. ) ;
#170 = DESIGN_CONTEXT ( 'detailed design', #65, 'design' ) ;
#171 = PERSON_AND_ORGANIZATION ( #27, #115 ) ;
#172 = PERSON_AND_ORGANIZATION ( #27, #115 ) ;
#173 = CC_DESIGN_PERSON_AND_ORGANIZATION_ASSIGNMENT ( #172, #116, ( #62 ) ) ;
#174 = CC_DESIGN_PERSON_AND_ORGANIZATION_ASSIGNMENT ( #171, #138, ( #36 ) ) ;
#175 = EDGE_LOOP ( 'NONE', ( #110, #94, #118, #64 ) ) ;
ENDSEC;
END-ISO-10303-21;
