ISO-10303-21;
HEADER;
FILE_DESCRIPTION (( 'STEP AP203' ),
    '1' );
FILE_NAME ('Web Model 68368.STEP',
    '2017-01-31T19:49:41',
    ( '' ),
    ( '' ),
    'SwSTEP 2.0',
    'SolidWorks 2016',
    '' );
FILE_SCHEMA (( 'CONFIG_CONTROL_DESIGN' ));
ENDSEC;

DATA;
#1 = CARTESIAN_POINT ( 'NONE',  ( -12.50000000000000000, 0.0000000000000000000, 0.0000000000000000000 ) ) ;
#2 = AXIS2_PLACEMENT_3D ( 'NONE', #94, #120, #132 ) ;
#3 = DATE_TIME_ROLE ( 'classification_date' ) ;
#4 = APPROVAL_STATUS ( 'not_yet_approved' ) ;
#5 = APPROVAL_ROLE ( '' ) ;
#6 = SECURITY_CLASSIFICATION_LEVEL ( 'unclassified' ) ;
#7 = EDGE_LOOP ( 'NONE', ( #27, #149 ) ) ;
#8 = PERSON_AND_ORGANIZATION_ROLE ( 'creator' ) ;
#9 = CC_DESIGN_PERSON_AND_ORGANIZATION_ASSIGNMENT ( #111, #39, ( #160 ) ) ;
#10 = EDGE_CURVE ( 'NONE', #16, #12, #88, .T. ) ;
#11 = PERSON_AND_ORGANIZATION ( #124, #155 ) ;
#12 = VERTEX_POINT ( 'NONE', #1 ) ;
#13 = CYLINDRICAL_SURFACE ( 'NONE', #2, 12.50000000000000000 ) ;
#14 = APPROVAL ( #84, 'UNSPECIFIED' ) ;
#15 = DATE_AND_TIME ( #174, #159 ) ;
#16 = VERTEX_POINT ( 'NONE', #50 ) ;
#17 = AXIS2_PLACEMENT_3D ( 'NONE', #76, #102, #164 ) ;
#18 = CARTESIAN_POINT ( 'NONE',  ( 0.0000000000000000000, 0.0000000000000000000, 3.000000000000000000 ) ) ;
#19 = PLANE ( 'NONE',  #161 ) ;
#20 = CC_DESIGN_PERSON_AND_ORGANIZATION_ASSIGNMENT ( #74, #134, ( #119 ) ) ;
#21 = DIRECTION ( 'NONE',  ( 0.0000000000000000000, 0.0000000000000000000, 1.000000000000000000 ) ) ;
#22 = COORDINATED_UNIVERSAL_TIME_OFFSET ( 5, 0, .BEHIND. ) ;
#23 = VECTOR ( 'NONE', #157, 1000.000000000000000 ) ;
#24 = DIRECTION ( 'NONE',  ( 1.000000000000000000, 0.0000000000000000000, -0.0000000000000000000 ) ) ;
#25 = APPROVAL_ROLE ( '' ) ;
#26 = CC_DESIGN_DATE_AND_TIME_ASSIGNMENT ( #82, #79, ( #171 ) ) ;
#27 = ORIENTED_EDGE ( 'NONE', *, *, #47, .F. ) ;
#28 = APPROVAL_STATUS ( 'not_yet_approved' ) ;
#29 = AXIS2_PLACEMENT_3D ( 'NONE', #37, #21, #52 ) ;
#30 = APPROVAL_PERSON_ORGANIZATION ( #33, #71, #5 ) ;
#31 = CYLINDRICAL_SURFACE ( 'NONE', #32, 12.50000000000000000 ) ;
#32 = AXIS2_PLACEMENT_3D ( 'NONE', #144, #57, #54 ) ;
#33 = PERSON_AND_ORGANIZATION ( #124, #155 ) ;
#34 = CARTESIAN_POINT ( 'NONE',  ( 0.0000000000000000000, 0.0000000000000000000, 0.0000000000000000000 ) ) ;
#35 = ORIENTED_EDGE ( 'NONE', *, *, #173, .F. ) ;
#36 = CC_DESIGN_APPROVAL ( #71, ( #119 ) ) ;
#37 = CARTESIAN_POINT ( 'NONE',  ( 0.0000000000000000000, 0.0000000000000000000, 3.000000000000000000 ) ) ;
#38 = PERSON_AND_ORGANIZATION ( #124, #155 ) ;
#39 = PERSON_AND_ORGANIZATION_ROLE ( 'design_supplier' ) ;
#40 = DIRECTION ( 'NONE',  ( 0.0000000000000000000, 0.0000000000000000000, 1.000000000000000000 ) ) ;
#41 = MECHANICAL_CONTEXT ( 'NONE', #156, 'mechanical' ) ;
#42 = COORDINATED_UNIVERSAL_TIME_OFFSET ( 5, 0, .BEHIND. ) ;
#43 = ORIENTED_EDGE ( 'NONE', *, *, #10, .T. ) ;
#44 = CC_DESIGN_DATE_AND_TIME_ASSIGNMENT ( #70, #3, ( #119 ) ) ;
#45 = COORDINATED_UNIVERSAL_TIME_OFFSET ( 5, 0, .BEHIND. ) ;
#46 = EDGE_CURVE ( 'NONE', #126, #16, #103, .T. ) ;
#47 = EDGE_CURVE ( 'NONE', #12, #58, #109, .T. ) ;
#48 = DATE_AND_TIME ( #136, #151 ) ;
#49 = AXIS2_PLACEMENT_3D ( 'NONE', #154, #143, #106 ) ;
#50 = CARTESIAN_POINT ( 'NONE',  ( -12.50000000000000000, 0.0000000000000000000, 3.000000000000000000 ) ) ;
#51 = CARTESIAN_POINT ( 'NONE',  ( 12.50000000000000000, 1.530808498934191500E-015, 0.0000000000000000000 ) ) ;
#52 = DIRECTION ( 'NONE',  ( 1.000000000000000000, 0.0000000000000000000, -0.0000000000000000000 ) ) ;
#53 = DIRECTION ( 'NONE',  ( 0.0000000000000000000, 0.0000000000000000000, 1.000000000000000000 ) ) ;
#54 = DIRECTION ( 'NONE',  ( -1.000000000000000000, 0.0000000000000000000, 0.0000000000000000000 ) ) ;
#55 = DATE_AND_TIME ( #104, #59 ) ;
#56 = ORIENTED_EDGE ( 'NONE', *, *, #47, .T. ) ;
#57 = DIRECTION ( 'NONE',  ( -0.0000000000000000000, -0.0000000000000000000, -1.000000000000000000 ) ) ;
#58 = VERTEX_POINT ( 'NONE', #51 ) ;
#59 = LOCAL_TIME ( 14, 49, 41.00000000000000000, #98 ) ;
#60 = CARTESIAN_POINT ( 'NONE',  ( 0.0000000000000000000, 0.0000000000000000000, 0.0000000000000000000 ) ) ;
#61 =( GEOMETRIC_REPRESENTATION_CONTEXT ( 3 ) GLOBAL_UNCERTAINTY_ASSIGNED_CONTEXT ( ( #139 ) ) GLOBAL_UNIT_ASSIGNED_CONTEXT ( ( #81, #167, #68 ) ) REPRESENTATION_CONTEXT ( 'NONE', 'WORKASPACE' ) );
#62 = CIRCLE ( 'NONE', #49, 12.50000000000000000 ) ;
#63 = ADVANCED_FACE ( 'NONE', ( #69 ), #19, .F. ) ;
#64 = APPROVAL_PERSON_ORGANIZATION ( #114, #14, #25 ) ;
#65 = APPLICATION_PROTOCOL_DEFINITION ( 'international standard', 'config_control_design', 1994, #156 ) ;
#66 = DIRECTION ( 'NONE',  ( 1.000000000000000000, 0.0000000000000000000, 0.0000000000000000000 ) ) ;
#67 = MANIFOLD_SOLID_BREP ( 'Extrude1', #96 ) ;
#68 =( NAMED_UNIT ( * ) SI_UNIT ( $, .STERADIAN. ) SOLID_ANGLE_UNIT ( ) );
#69 = FACE_OUTER_BOUND ( 'NONE', #7, .T. ) ;
#70 = DATE_AND_TIME ( #165, #110 ) ;
#71 = APPROVAL ( #28, 'UNSPECIFIED' ) ;
#72 = FACE_OUTER_BOUND ( 'NONE', #122, .T. ) ;
#73 = CC_DESIGN_APPROVAL ( #14, ( #171 ) ) ;
#74 = PERSON_AND_ORGANIZATION ( #124, #155 ) ;
#75 = ORIENTED_EDGE ( 'NONE', *, *, #80, .F. ) ;
#76 = CARTESIAN_POINT ( 'NONE',  ( 0.0000000000000000000, 0.0000000000000000000, 3.000000000000000000 ) ) ;
#77 = ADVANCED_FACE ( 'NONE', ( #113 ), #118, .T. ) ;
#78 = AXIS2_PLACEMENT_3D ( 'NONE', #85, #53, #66 ) ;
#79 = DATE_TIME_ROLE ( 'creation_date' ) ;
#80 = EDGE_CURVE ( 'NONE', #16, #126, #163, .T. ) ;
#81 =( LENGTH_UNIT ( ) NAMED_UNIT ( * ) SI_UNIT ( .MILLI., .METRE. ) );
#82 = DATE_AND_TIME ( #141, #169 ) ;
#83 = PRODUCT_RELATED_PRODUCT_CATEGORY ( 'detail', '', ( #97 ) ) ;
#84 = APPROVAL_STATUS ( 'not_yet_approved' ) ;
#85 = CARTESIAN_POINT ( 'NONE',  ( 0.0000000000000000000, 0.0000000000000000000, 0.0000000000000000000 ) ) ;
#86 = ORIENTED_EDGE ( 'NONE', *, *, #46, .F. ) ;
#87 = APPROVAL_DATE_TIME ( #48, #138 ) ;
#88 = LINE ( 'NONE', #116, #137 ) ;
#89 = FACE_OUTER_BOUND ( 'NONE', #152, .T. ) ;
#90 = ORIENTED_EDGE ( 'NONE', *, *, #10, .F. ) ;
#91 = DESIGN_CONTEXT ( 'detailed design', #105, 'design' ) ;
#92 = APPROVAL_DATE_TIME ( #15, #71 ) ;
#93 = DIRECTION ( 'NONE',  ( 0.0000000000000000000, 0.0000000000000000000, 1.000000000000000000 ) ) ;
#94 = CARTESIAN_POINT ( 'NONE',  ( 0.0000000000000000000, 0.0000000000000000000, 3.000000000000000000 ) ) ;
#95 = APPLICATION_PROTOCOL_DEFINITION ( 'international standard', 'config_control_design', 1994, #105 ) ;
#96 = CLOSED_SHELL ( 'NONE', ( #162, #150, #77, #63 ) ) ;
#97 = PRODUCT ( 'Web Model 68368', 'Web Model 68368', '', ( #41 ) ) ;
#98 = COORDINATED_UNIVERSAL_TIME_OFFSET ( 5, 0, .BEHIND. ) ;
#99 = APPROVAL_PERSON_ORGANIZATION ( #38, #138, #108 ) ;
#100 = LINE ( 'NONE', #135, #23 ) ;
#101 = CARTESIAN_POINT ( 'NONE',  ( 12.50000000000000000, 1.530808498934191500E-015, 3.000000000000000000 ) ) ;
#102 = DIRECTION ( 'NONE',  ( 0.0000000000000000000, 0.0000000000000000000, 1.000000000000000000 ) ) ;
#103 = CIRCLE ( 'NONE', #17, 12.50000000000000000 ) ;
#104 = CALENDAR_DATE ( 2017, 31, 1 ) ;
#105 = APPLICATION_CONTEXT ( 'configuration controlled 3d designs of mechanical parts and assemblies' ) ;
#106 = DIRECTION ( 'NONE',  ( 1.000000000000000000, 0.0000000000000000000, 0.0000000000000000000 ) ) ;
#107 = APPROVAL_DATE_TIME ( #55, #14 ) ;
#108 = APPROVAL_ROLE ( '' ) ;
#109 = CIRCLE ( 'NONE', #125, 12.50000000000000000 ) ;
#110 = LOCAL_TIME ( 14, 49, 41.00000000000000000, #42 ) ;
#111 = PERSON_AND_ORGANIZATION ( #124, #155 ) ;
#112 = ORIENTED_EDGE ( 'NONE', *, *, #175, .T. ) ;
#113 = FACE_OUTER_BOUND ( 'NONE', #142, .T. ) ;
#114 = PERSON_AND_ORGANIZATION ( #124, #155 ) ;
#115 = ORIENTED_EDGE ( 'NONE', *, *, #46, .T. ) ;
#116 = CARTESIAN_POINT ( 'NONE',  ( -12.50000000000000000, 0.0000000000000000000, 3.000000000000000000 ) ) ;
#117 = DIRECTION ( 'NONE',  ( -0.0000000000000000000, -0.0000000000000000000, -1.000000000000000000 ) ) ;
#118 = PLANE ( 'NONE',  #29 ) ;
#119 = SECURITY_CLASSIFICATION ( '', '', #6 ) ;
#120 = DIRECTION ( 'NONE',  ( -0.0000000000000000000, -0.0000000000000000000, -1.000000000000000000 ) ) ;
#121 = PERSON_AND_ORGANIZATION ( #124, #155 ) ;
#122 = EDGE_LOOP ( 'NONE', ( #86, #172, #112, #90 ) ) ;
#123 = PERSON_AND_ORGANIZATION_ROLE ( 'design_owner' ) ;
#124 = PERSON ( 'UNSPECIFIED', 'UNSPECIFIED', 'UNSPECIFIED', ('UNSPECIFIED'), ('UNSPECIFIED'), ('UNSPECIFIED') ) ;
#125 = AXIS2_PLACEMENT_3D ( 'NONE', #34, #131, #127 ) ;
#126 = VERTEX_POINT ( 'NONE', #101 ) ;
#127 = DIRECTION ( 'NONE',  ( 1.000000000000000000, 0.0000000000000000000, 0.0000000000000000000 ) ) ;
#128 = COORDINATED_UNIVERSAL_TIME_OFFSET ( 5, 0, .BEHIND. ) ;
#129 = SHAPE_DEFINITION_REPRESENTATION ( #133, #147 ) ;
#130 = CC_DESIGN_PERSON_AND_ORGANIZATION_ASSIGNMENT ( #11, #8, ( #171 ) ) ;
#131 = DIRECTION ( 'NONE',  ( 0.0000000000000000000, 0.0000000000000000000, 1.000000000000000000 ) ) ;
#132 = DIRECTION ( 'NONE',  ( -1.000000000000000000, 0.0000000000000000000, 0.0000000000000000000 ) ) ;
#133 = PRODUCT_DEFINITION_SHAPE ( 'NONE', 'NONE',  #171 ) ;
#134 = PERSON_AND_ORGANIZATION_ROLE ( 'classification_officer' ) ;
#135 = CARTESIAN_POINT ( 'NONE',  ( 12.50000000000000000, 1.530808498934191500E-015, 3.000000000000000000 ) ) ;
#136 = CALENDAR_DATE ( 2017, 31, 1 ) ;
#137 = VECTOR ( 'NONE', #117, 1000.000000000000000 ) ;
#138 = APPROVAL ( #4, 'UNSPECIFIED' ) ;
#139 = UNCERTAINTY_MEASURE_WITH_UNIT (LENGTH_MEASURE( 1.000000000000000100E-005 ), #81, 'distance_accuracy_value', 'NONE');
#140 = PERSON_AND_ORGANIZATION ( #124, #155 ) ;
#141 = CALENDAR_DATE ( 2017, 31, 1 ) ;
#142 = EDGE_LOOP ( 'NONE', ( #145, #115 ) ) ;
#143 = DIRECTION ( 'NONE',  ( 0.0000000000000000000, 0.0000000000000000000, 1.000000000000000000 ) ) ;
#144 = CARTESIAN_POINT ( 'NONE',  ( 0.0000000000000000000, 0.0000000000000000000, 3.000000000000000000 ) ) ;
#145 = ORIENTED_EDGE ( 'NONE', *, *, #80, .T. ) ;
#146 = AXIS2_PLACEMENT_3D ( 'NONE', #18, #40, #166 ) ;
#147 = ADVANCED_BREP_SHAPE_REPRESENTATION ( 'Web Model 68368', ( #67, #78 ), #61 ) ;
#148 = CC_DESIGN_PERSON_AND_ORGANIZATION_ASSIGNMENT ( #140, #123, ( #97 ) ) ;
#149 = ORIENTED_EDGE ( 'NONE', *, *, #175, .F. ) ;
#150 = ADVANCED_FACE ( 'NONE', ( #89 ), #13, .T. ) ;
#151 = LOCAL_TIME ( 14, 49, 41.00000000000000000, #128 ) ;
#152 = EDGE_LOOP ( 'NONE', ( #35, #75, #43, #56 ) ) ;
#153 = CC_DESIGN_APPROVAL ( #138, ( #160 ) ) ;
#154 = CARTESIAN_POINT ( 'NONE',  ( 0.0000000000000000000, 0.0000000000000000000, 0.0000000000000000000 ) ) ;
#155 = ORGANIZATION ( 'UNSPECIFIED', 'UNSPECIFIED', '' ) ;
#156 = APPLICATION_CONTEXT ( 'configuration controlled 3d designs of mechanical parts and assemblies' ) ;
#157 = DIRECTION ( 'NONE',  ( -0.0000000000000000000, -0.0000000000000000000, -1.000000000000000000 ) ) ;
#158 = CC_DESIGN_SECURITY_CLASSIFICATION ( #119, ( #160 ) ) ;
#159 = LOCAL_TIME ( 14, 49, 41.00000000000000000, #45 ) ;
#160 = PRODUCT_DEFINITION_FORMATION_WITH_SPECIFIED_SOURCE ( 'ANY', '', #97, .NOT_KNOWN. ) ;
#161 = AXIS2_PLACEMENT_3D ( 'NONE', #60, #93, #24 ) ;
#162 = ADVANCED_FACE ( 'NONE', ( #72 ), #31, .T. ) ;
#163 = CIRCLE ( 'NONE', #146, 12.50000000000000000 ) ;
#164 = DIRECTION ( 'NONE',  ( 1.000000000000000000, 0.0000000000000000000, 0.0000000000000000000 ) ) ;
#165 = CALENDAR_DATE ( 2017, 31, 1 ) ;
#166 = DIRECTION ( 'NONE',  ( 1.000000000000000000, 0.0000000000000000000, 0.0000000000000000000 ) ) ;
#167 =( NAMED_UNIT ( * ) PLANE_ANGLE_UNIT ( ) SI_UNIT ( $, .RADIAN. ) );
#168 = PERSON_AND_ORGANIZATION_ROLE ( 'creator' ) ;
#169 = LOCAL_TIME ( 14, 49, 41.00000000000000000, #22 ) ;
#170 = CC_DESIGN_PERSON_AND_ORGANIZATION_ASSIGNMENT ( #121, #168, ( #160 ) ) ;
#171 = PRODUCT_DEFINITION ( 'UNKNOWN', '', #160, #91 ) ;
#172 = ORIENTED_EDGE ( 'NONE', *, *, #173, .T. ) ;
#173 = EDGE_CURVE ( 'NONE', #126, #58, #100, .T. ) ;
#174 = CALENDAR_DATE ( 2017, 31, 1 ) ;
#175 = EDGE_CURVE ( 'NONE', #58, #12, #62, .T. ) ;
ENDSEC;
END-ISO-10303-21;
