ISO-10303-21;
HEADER;
FILE_DESCRIPTION (( 'STEP AP203' ),
    '1' );
FILE_NAME ('Web Model 63208_14807.step',
    '2020-10-07T17:37:04',
    ( '' ),
    ( '' ),
    'SwSTEP 2.0',
    'SolidWorks 2018',
    '' );
FILE_SCHEMA (( 'CONFIG_CONTROL_DESIGN' ));
ENDSEC;

DATA;
#1 = EDGE_LOOP ( 'NONE', ( #24, #171, #72, #76 ) ) ;
#2 = EDGE_LOOP ( 'NONE', ( #85, #80, #165, #146 ) ) ;
#3 = PERSON_AND_ORGANIZATION ( #163, #14 ) ;
#4 = EDGE_LOOP ( 'NONE', ( #123, #54 ) ) ;
#5 = DIRECTION ( 'NONE',  ( 0.0000000000000000000, 0.0000000000000000000, 1.000000000000000000 ) ) ;
#6 = DIRECTION ( 'NONE',  ( 0.0000000000000000000, 0.0000000000000000000, 1.000000000000000000 ) ) ;
#7 = DIRECTION ( 'NONE',  ( 0.0000000000000000000, 0.0000000000000000000, 1.000000000000000000 ) ) ;
#8 = APPROVAL_ROLE ( '' ) ;
#9 = LINE ( 'NONE', #132, #119 ) ;
#10 =( NAMED_UNIT ( * ) PLANE_ANGLE_UNIT ( ) SI_UNIT ( $, .RADIAN. ) );
#11 = APPLICATION_CONTEXT ( 'configuration controlled 3d designs of mechanical parts and assemblies' ) ;
#12 = DATE_AND_TIME ( #48, #129 ) ;
#13 = AXIS2_PLACEMENT_3D ( 'NONE', #172, #7, #173 ) ;
#14 = ORGANIZATION ( 'UNSPECIFIED', 'UNSPECIFIED', '' ) ;
#15 = CALENDAR_DATE ( 2020, 7, 10 ) ;
#16 = PERSON_AND_ORGANIZATION ( #163, #14 ) ;
#17 = DIRECTION ( 'NONE',  ( 1.000000000000000000, 0.0000000000000000000, -0.0000000000000000000 ) ) ;
#18 = SHAPE_DEFINITION_REPRESENTATION ( #69, #160 ) ;
#19 = ADVANCED_FACE ( 'NONE', ( #36 ), #91, .T. ) ;
#20 = MECHANICAL_CONTEXT ( 'NONE', #68, 'mechanical' ) ;
#21 = DESIGN_CONTEXT ( 'detailed design', #11, 'design' ) ;
#22 = CYLINDRICAL_SURFACE ( 'NONE', #70, 15.00000000000000000 ) ;
#23 =( GEOMETRIC_REPRESENTATION_CONTEXT ( 3 ) GLOBAL_UNCERTAINTY_ASSIGNED_CONTEXT ( ( #30 ) ) GLOBAL_UNIT_ASSIGNED_CONTEXT ( ( #156, #10, #88 ) ) REPRESENTATION_CONTEXT ( 'NONE', 'WORKASPACE' ) );
#24 = ORIENTED_EDGE ( 'NONE', *, *, #122, .F. ) ;
#25 = DIRECTION ( 'NONE',  ( 0.0000000000000000000, 0.0000000000000000000, 1.000000000000000000 ) ) ;
#26 = APPROVAL_DATE_TIME ( #66, #126 ) ;
#27 = PRODUCT_RELATED_PRODUCT_CATEGORY ( 'detail', '', ( #92 ) ) ;
#28 = CARTESIAN_POINT ( 'NONE',  ( 15.00000000000000000, 1.836970198721029589E-15, 0.0000000000000000000 ) ) ;
#29 = CARTESIAN_POINT ( 'NONE',  ( 0.0000000000000000000, 0.0000000000000000000, 3.000000000000000000 ) ) ;
#30 = UNCERTAINTY_MEASURE_WITH_UNIT (LENGTH_MEASURE( 1.000000000000000082E-05 ), #156, 'distance_accuracy_value', 'NONE');
#31 = APPROVAL_DATE_TIME ( #75, #113 ) ;
#32 = APPROVAL_ROLE ( '' ) ;
#33 = DATE_TIME_ROLE ( 'classification_date' ) ;
#34 = MANIFOLD_SOLID_BREP ( 'Extrude1', #107 ) ;
#35 = CC_DESIGN_PERSON_AND_ORGANIZATION_ASSIGNMENT ( #71, #145, ( #130 ) ) ;
#36 = FACE_OUTER_BOUND ( 'NONE', #1, .T. ) ;
#37 = APPLICATION_PROTOCOL_DEFINITION ( 'international standard', 'config_control_design', 1994, #68 ) ;
#38 = PERSON_AND_ORGANIZATION ( #163, #14 ) ;
#39 = EDGE_LOOP ( 'NONE', ( #58, #61 ) ) ;
#40 = VERTEX_POINT ( 'NONE', #98 ) ;
#41 = CC_DESIGN_PERSON_AND_ORGANIZATION_ASSIGNMENT ( #74, #157, ( #130 ) ) ;
#42 = CIRCLE ( 'NONE', #55, 15.00000000000000000 ) ;
#43 = AXIS2_PLACEMENT_3D ( 'NONE', #29, #168, #95 ) ;
#44 = LOCAL_TIME ( 13, 37, 4.000000000000000000, #106 ) ;
#45 = ADVANCED_FACE ( 'NONE', ( #103 ), #47, .F. ) ;
#46 = SECURITY_CLASSIFICATION ( '', '', #135 ) ;
#47 = PLANE ( 'NONE',  #56 ) ;
#48 = CALENDAR_DATE ( 2020, 7, 10 ) ;
#49 = CARTESIAN_POINT ( 'NONE',  ( 0.0000000000000000000, 0.0000000000000000000, 3.000000000000000000 ) ) ;
#50 = ADVANCED_FACE ( 'NONE', ( #104 ), #140, .T. ) ;
#51 = APPROVAL_PERSON_ORGANIZATION ( #128, #126, #8 ) ;
#52 = CARTESIAN_POINT ( 'NONE',  ( 0.0000000000000000000, 0.0000000000000000000, 3.000000000000000000 ) ) ;
#53 = DIRECTION ( 'NONE',  ( 1.000000000000000000, 0.0000000000000000000, 0.0000000000000000000 ) ) ;
#54 = ORIENTED_EDGE ( 'NONE', *, *, #139, .F. ) ;
#55 = AXIS2_PLACEMENT_3D ( 'NONE', #52, #25, #53 ) ;
#56 = AXIS2_PLACEMENT_3D ( 'NONE', #166, #5, #64 ) ;
#57 = VERTEX_POINT ( 'NONE', #97 ) ;
#58 = ORIENTED_EDGE ( 'NONE', *, *, #162, .T. ) ;
#59 = CARTESIAN_POINT ( 'NONE',  ( -15.00000000000000000, 0.0000000000000000000, 0.0000000000000000000 ) ) ;
#60 = VERTEX_POINT ( 'NONE', #28 ) ;
#61 = ORIENTED_EDGE ( 'NONE', *, *, #122, .T. ) ;
#62 = DIRECTION ( 'NONE',  ( -0.0000000000000000000, -0.0000000000000000000, -1.000000000000000000 ) ) ;
#63 = DATE_AND_TIME ( #102, #144 ) ;
#64 = DIRECTION ( 'NONE',  ( 1.000000000000000000, 0.0000000000000000000, -0.0000000000000000000 ) ) ;
#65 = VERTEX_POINT ( 'NONE', #59 ) ;
#66 = DATE_AND_TIME ( #15, #94 ) ;
#67 = APPROVAL_ROLE ( '' ) ;
#68 = APPLICATION_CONTEXT ( 'configuration controlled 3d designs of mechanical parts and assemblies' ) ;
#69 = PRODUCT_DEFINITION_SHAPE ( 'NONE', 'NONE',  #138 ) ;
#70 = AXIS2_PLACEMENT_3D ( 'NONE', #112, #62, #151 ) ;
#71 = PERSON_AND_ORGANIZATION ( #163, #14 ) ;
#72 = ORIENTED_EDGE ( 'NONE', *, *, #139, .T. ) ;
#73 = DIRECTION ( 'NONE',  ( 0.0000000000000000000, 0.0000000000000000000, 1.000000000000000000 ) ) ;
#74 = PERSON_AND_ORGANIZATION ( #163, #14 ) ;
#75 = DATE_AND_TIME ( #110, #44 ) ;
#76 = ORIENTED_EDGE ( 'NONE', *, *, #152, .F. ) ;
#77 = PERSON_AND_ORGANIZATION_ROLE ( 'classification_officer' ) ;
#78 = PERSON_AND_ORGANIZATION ( #163, #14 ) ;
#79 = EDGE_CURVE ( 'NONE', #57, #60, #93, .T. ) ;
#80 = ORIENTED_EDGE ( 'NONE', *, *, #162, .F. ) ;
#81 = CC_DESIGN_PERSON_AND_ORGANIZATION_ASSIGNMENT ( #149, #101, ( #138 ) ) ;
#82 = APPROVAL_PERSON_ORGANIZATION ( #16, #164, #67 ) ;
#83 = AXIS2_PLACEMENT_3D ( 'NONE', #169, #6, #114 ) ;
#84 = CIRCLE ( 'NONE', #174, 15.00000000000000000 ) ;
#85 = ORIENTED_EDGE ( 'NONE', *, *, #79, .F. ) ;
#86 = DIRECTION ( 'NONE',  ( 1.000000000000000000, 0.0000000000000000000, 0.0000000000000000000 ) ) ;
#87 = COORDINATED_UNIVERSAL_TIME_OFFSET ( 5, 0, .BEHIND. ) ;
#88 =( NAMED_UNIT ( * ) SI_UNIT ( $, .STERADIAN. ) SOLID_ANGLE_UNIT ( ) );
#89 = PERSON_AND_ORGANIZATION_ROLE ( 'design_owner' ) ;
#90 = AXIS2_PLACEMENT_3D ( 'NONE', #49, #143, #153 ) ;
#91 = CYLINDRICAL_SURFACE ( 'NONE', #43, 15.00000000000000000 ) ;
#92 = PRODUCT ( 'Web Model 63208_14807', 'Web Model 63208_14807', '', ( #20 ) ) ;
#93 = LINE ( 'NONE', #111, #136 ) ;
#94 = LOCAL_TIME ( 13, 37, 4.000000000000000000, #150 ) ;
#95 = DIRECTION ( 'NONE',  ( -1.000000000000000000, 0.0000000000000000000, 0.0000000000000000000 ) ) ;
#96 = CARTESIAN_POINT ( 'NONE',  ( 0.0000000000000000000, 0.0000000000000000000, 3.000000000000000000 ) ) ;
#97 = CARTESIAN_POINT ( 'NONE',  ( 15.00000000000000000, 1.836970198721029589E-15, 3.000000000000000000 ) ) ;
#98 = CARTESIAN_POINT ( 'NONE',  ( -15.00000000000000000, 0.0000000000000000000, 3.000000000000000000 ) ) ;
#99 = APPROVAL_STATUS ( 'not_yet_approved' ) ;
#100 = COORDINATED_UNIVERSAL_TIME_OFFSET ( 5, 0, .BEHIND. ) ;
#101 = PERSON_AND_ORGANIZATION_ROLE ( 'creator' ) ;
#102 = CALENDAR_DATE ( 2020, 7, 10 ) ;
#103 = FACE_OUTER_BOUND ( 'NONE', #4, .T. ) ;
#104 = FACE_OUTER_BOUND ( 'NONE', #39, .T. ) ;
#105 = EDGE_CURVE ( 'NONE', #65, #60, #84, .T. ) ;
#106 = COORDINATED_UNIVERSAL_TIME_OFFSET ( 5, 0, .BEHIND. ) ;
#107 = CLOSED_SHELL ( 'NONE', ( #19, #116, #50, #45 ) ) ;
#108 = CC_DESIGN_PERSON_AND_ORGANIZATION_ASSIGNMENT ( #38, #77, ( #46 ) ) ;
#109 = CC_DESIGN_SECURITY_CLASSIFICATION ( #46, ( #130 ) ) ;
#110 = CALENDAR_DATE ( 2020, 7, 10 ) ;
#111 = CARTESIAN_POINT ( 'NONE',  ( 15.00000000000000000, 1.836970198721029589E-15, 3.000000000000000000 ) ) ;
#112 = CARTESIAN_POINT ( 'NONE',  ( 0.0000000000000000000, 0.0000000000000000000, 3.000000000000000000 ) ) ;
#113 = APPROVAL ( #99, 'UNSPECIFIED' ) ;
#114 = DIRECTION ( 'NONE',  ( 1.000000000000000000, 0.0000000000000000000, 0.0000000000000000000 ) ) ;
#115 = CALENDAR_DATE ( 2020, 7, 10 ) ;
#116 = ADVANCED_FACE ( 'NONE', ( #158 ), #22, .T. ) ;
#117 = CARTESIAN_POINT ( 'NONE',  ( 0.0000000000000000000, 0.0000000000000000000, 0.0000000000000000000 ) ) ;
#118 = APPROVAL_STATUS ( 'not_yet_approved' ) ;
#119 = VECTOR ( 'NONE', #133, 1000.000000000000000 ) ;
#120 = APPROVAL_STATUS ( 'not_yet_approved' ) ;
#121 = CC_DESIGN_APPROVAL ( #126, ( #46 ) ) ;
#122 = EDGE_CURVE ( 'NONE', #57, #40, #161, .T. ) ;
#123 = ORIENTED_EDGE ( 'NONE', *, *, #105, .F. ) ;
#124 = CC_DESIGN_DATE_AND_TIME_ASSIGNMENT ( #155, #170, ( #138 ) ) ;
#125 = APPROVAL_PERSON_ORGANIZATION ( #78, #113, #32 ) ;
#126 = APPROVAL ( #118, 'UNSPECIFIED' ) ;
#127 = CC_DESIGN_PERSON_AND_ORGANIZATION_ASSIGNMENT ( #3, #89, ( #92 ) ) ;
#128 = PERSON_AND_ORGANIZATION ( #163, #14 ) ;
#129 = LOCAL_TIME ( 13, 37, 4.000000000000000000, #100 ) ;
#130 = PRODUCT_DEFINITION_FORMATION_WITH_SPECIFIED_SOURCE ( 'ANY', '', #92, .NOT_KNOWN. ) ;
#131 = DIRECTION ( 'NONE',  ( -0.0000000000000000000, -0.0000000000000000000, -1.000000000000000000 ) ) ;
#132 = CARTESIAN_POINT ( 'NONE',  ( -15.00000000000000000, 0.0000000000000000000, 3.000000000000000000 ) ) ;
#133 = DIRECTION ( 'NONE',  ( -0.0000000000000000000, -0.0000000000000000000, -1.000000000000000000 ) ) ;
#134 = CC_DESIGN_DATE_AND_TIME_ASSIGNMENT ( #63, #33, ( #46 ) ) ;
#135 = SECURITY_CLASSIFICATION_LEVEL ( 'unclassified' ) ;
#136 = VECTOR ( 'NONE', #131, 1000.000000000000000 ) ;
#137 = CIRCLE ( 'NONE', #83, 15.00000000000000000 ) ;
#138 = PRODUCT_DEFINITION ( 'UNKNOWN', '', #130, #21 ) ;
#139 = EDGE_CURVE ( 'NONE', #60, #65, #137, .T. ) ;
#140 = PLANE ( 'NONE',  #142 ) ;
#141 = DIRECTION ( 'NONE',  ( 0.0000000000000000000, 0.0000000000000000000, 1.000000000000000000 ) ) ;
#142 = AXIS2_PLACEMENT_3D ( 'NONE', #96, #73, #17 ) ;
#143 = DIRECTION ( 'NONE',  ( 0.0000000000000000000, 0.0000000000000000000, 1.000000000000000000 ) ) ;
#144 = LOCAL_TIME ( 13, 37, 4.000000000000000000, #175 ) ;
#145 = PERSON_AND_ORGANIZATION_ROLE ( 'design_supplier' ) ;
#146 = ORIENTED_EDGE ( 'NONE', *, *, #105, .T. ) ;
#147 = APPROVAL_DATE_TIME ( #12, #164 ) ;
#148 = LOCAL_TIME ( 13, 37, 4.000000000000000000, #87 ) ;
#149 = PERSON_AND_ORGANIZATION ( #163, #14 ) ;
#150 = COORDINATED_UNIVERSAL_TIME_OFFSET ( 5, 0, .BEHIND. ) ;
#151 = DIRECTION ( 'NONE',  ( -1.000000000000000000, 0.0000000000000000000, 0.0000000000000000000 ) ) ;
#152 = EDGE_CURVE ( 'NONE', #40, #65, #9, .T. ) ;
#153 = DIRECTION ( 'NONE',  ( 1.000000000000000000, 0.0000000000000000000, 0.0000000000000000000 ) ) ;
#154 = APPLICATION_PROTOCOL_DEFINITION ( 'international standard', 'config_control_design', 1994, #11 ) ;
#155 = DATE_AND_TIME ( #115, #148 ) ;
#156 =( LENGTH_UNIT ( ) NAMED_UNIT ( * ) SI_UNIT ( .MILLI., .METRE. ) );
#157 = PERSON_AND_ORGANIZATION_ROLE ( 'creator' ) ;
#158 = FACE_OUTER_BOUND ( 'NONE', #2, .T. ) ;
#159 = CC_DESIGN_APPROVAL ( #164, ( #138 ) ) ;
#160 = ADVANCED_BREP_SHAPE_REPRESENTATION ( 'Web Model 63208_14807', ( #34, #13 ), #23 ) ;
#161 = CIRCLE ( 'NONE', #90, 15.00000000000000000 ) ;
#162 = EDGE_CURVE ( 'NONE', #40, #57, #42, .T. ) ;
#163 = PERSON ( 'UNSPECIFIED', 'UNSPECIFIED', 'UNSPECIFIED', ('UNSPECIFIED'), ('UNSPECIFIED'), ('UNSPECIFIED') ) ;
#164 = APPROVAL ( #120, 'UNSPECIFIED' ) ;
#165 = ORIENTED_EDGE ( 'NONE', *, *, #152, .T. ) ;
#166 = CARTESIAN_POINT ( 'NONE',  ( 0.0000000000000000000, 0.0000000000000000000, 0.0000000000000000000 ) ) ;
#167 = CC_DESIGN_APPROVAL ( #113, ( #130 ) ) ;
#168 = DIRECTION ( 'NONE',  ( -0.0000000000000000000, -0.0000000000000000000, -1.000000000000000000 ) ) ;
#169 = CARTESIAN_POINT ( 'NONE',  ( 0.0000000000000000000, 0.0000000000000000000, 0.0000000000000000000 ) ) ;
#170 = DATE_TIME_ROLE ( 'creation_date' ) ;
#171 = ORIENTED_EDGE ( 'NONE', *, *, #79, .T. ) ;
#172 = CARTESIAN_POINT ( 'NONE',  ( 0.0000000000000000000, 0.0000000000000000000, 0.0000000000000000000 ) ) ;
#173 = DIRECTION ( 'NONE',  ( 1.000000000000000000, 0.0000000000000000000, 0.0000000000000000000 ) ) ;
#174 = AXIS2_PLACEMENT_3D ( 'NONE', #117, #141, #86 ) ;
#175 = COORDINATED_UNIVERSAL_TIME_OFFSET ( 5, 0, .BEHIND. ) ;
ENDSEC;
END-ISO-10303-21;
