ISO-10303-21;
HEADER;
FILE_DESCRIPTION (( 'STEP AP214' ),
    '1' );
FILE_NAME ('3382-E0W.STEP',
    '2009-12-21T16:58:36',
    ( ' ' ),
    ( ' ' ),
    'SwSTEP 2.0',
    'SolidWorks 2009',
    '' );
FILE_SCHEMA (( 'AUTOMOTIVE_DESIGN' ));
ENDSEC;

DATA;
#1 =( GEOMETRIC_REPRESENTATION_CONTEXT ( 3 ) GLOBAL_UNCERTAINTY_ASSIGNED_CONTEXT ( ( #52 ) ) GLOBAL_UNIT_ASSIGNED_CONTEXT ( ( #55, #54, #53 ) ) REPRESENTATION_CONTEXT ( 'NONE', 'WORKASPACE' ) );
#2 =( NAMED_UNIT ( * ) PLANE_ANGLE_UNIT ( ) SI_UNIT ( $, .RADIAN. ) );
#3 =( LENGTH_UNIT ( ) NAMED_UNIT ( * ) SI_UNIT ( .MILLI., .METRE. ) );
#4 = MECHANICAL_DESIGN_GEOMETRIC_PRESENTATION_REPRESENTATION (  '', ( #6 ), #74 ) ;
#5 = PRESENTATION_LAYER_ASSIGNMENT (  '', '', ( #6 ) ) ;
#6 = STYLED_ITEM ( 'NONE', ( #126 ), #25 ) ;
#7 = CARTESIAN_POINT ( 'NONE',  ( 0.0000000000000000000, -6.274098110942214900E-015, -1.499724278235964800 ) ) ;
#8 = CARTESIAN_POINT ( 'NONE',  ( 0.0000000000000000000, 4.664750233302505600E-014, 2.759999999999984700 ) ) ;
#9 = CARTESIAN_POINT ( 'NONE',  ( 25.40000000000000200, -6.274098110942214900E-015, 1.499724278235969900 ) ) ;
#10 = DIRECTION ( 'NONE',  ( 1.000000000000000000, 0.0000000000000000000, 0.0000000000000000000 ) ) ;
#11 = DIRECTION ( 'NONE',  ( -0.0000000000000000000, -0.0000000000000000000, 1.000000000000000000 ) ) ;
#12 = CARTESIAN_POINT ( 'NONE',  ( 0.0000000000000000000, -6.274098110942214900E-015, 1.499724278235969900 ) ) ;
#13 = ORIENTED_EDGE ( 'NONE', *, *, #14, .F. ) ;
#14 = EDGE_CURVE ( 'NONE', #15, #41, #114, .T. ) ;
#15 = VERTEX_POINT ( 'NONE', #9 ) ;
#16 = VERTEX_POINT ( 'NONE', #8 ) ;
#17 = ORIENTED_EDGE ( 'NONE', *, *, #40, .F. ) ;
#18 = ORIENTED_EDGE ( 'NONE', *, *, #97, .T. ) ;
#19 = ORIENTED_EDGE ( 'NONE', *, *, #20, .T. ) ;
#20 = EDGE_CURVE ( 'NONE', #21, #22, #80, .T. ) ;
#21 = VERTEX_POINT ( 'NONE', #76 ) ;
#22 = VERTEX_POINT ( 'NONE', #75 ) ;
#23 = EDGE_CURVE ( 'NONE', #41, #45, #105, .T. ) ;
#24 = ORIENTED_EDGE ( 'NONE', *, *, #81, .T. ) ;
#25 = ADVANCED_FACE ( 'NONE', ( #106 ), #73, .T. ) ;
#26 = CLOSED_SHELL ( 'NONE', ( #37, #123, #107, #101, #85, #25 ) ) ;
#27 = ORIENTED_EDGE ( 'NONE', *, *, #48, .F. ) ;
#28 = ORIENTED_EDGE ( 'NONE', *, *, #39, .F. ) ;
#29 = ORIENTED_EDGE ( 'NONE', *, *, #111, .F. ) ;
#30 = ORIENTED_EDGE ( 'NONE', *, *, #31, .F. ) ;
#31 = EDGE_CURVE ( 'NONE', #32, #21, #90, .T. ) ;
#32 = VERTEX_POINT ( 'NONE', #72 ) ;
#33 = VERTEX_POINT ( 'NONE', #71 ) ;
#34 = ORIENTED_EDGE ( 'NONE', *, *, #35, .T. ) ;
#35 = EDGE_CURVE ( 'NONE', #22, #45, #69, .T. ) ;
#36 = ORIENTED_EDGE ( 'NONE', *, *, #116, .T. ) ;
#37 = ADVANCED_FACE ( 'NONE', ( #65 ), #146, .T. ) ;
#38 = MANIFOLD_SOLID_BREP ( 'NONE', #26 ) ;
#39 = EDGE_CURVE ( 'NONE', #117, #21, #138, .T. ) ;
#40 = EDGE_CURVE ( 'NONE', #41, #16, #224, .T. ) ;
#41 = VERTEX_POINT ( 'NONE', #162 ) ;
#42 = ORIENTED_EDGE ( 'NONE', *, *, #23, .T. ) ;
#43 = UNCERTAINTY_MEASURE_WITH_UNIT (LENGTH_MEASURE( 1.000000000000000100E-005 ), #3, 'distance_accuracy_value', 'NONE');
#44 =( NAMED_UNIT ( * ) SI_UNIT ( $, .STERADIAN. ) SOLID_ANGLE_UNIT ( ) );
#45 = VERTEX_POINT ( 'NONE', #161 ) ;
#46 = VERTEX_POINT ( 'NONE', #243 ) ;
#47 = ORIENTED_EDGE ( 'NONE', *, *, #31, .T. ) ;
#48 = EDGE_CURVE ( 'NONE', #33, #117, #242, .T. ) ;
#49 = ORIENTED_EDGE ( 'NONE', *, *, #14, .T. ) ;
#50 = ORIENTED_EDGE ( 'NONE', *, *, #35, .F. ) ;
#51 = ORIENTED_EDGE ( 'NONE', *, *, #82, .T. ) ;
#52 = UNCERTAINTY_MEASURE_WITH_UNIT (LENGTH_MEASURE( 1.000000000000000100E-005 ), #55, 'distance_accuracy_value', 'NONE');
#53 =( NAMED_UNIT ( * ) SI_UNIT ( $, .STERADIAN. ) SOLID_ANGLE_UNIT ( ) );
#54 =( NAMED_UNIT ( * ) PLANE_ANGLE_UNIT ( ) SI_UNIT ( $, .RADIAN. ) );
#55 =( LENGTH_UNIT ( ) NAMED_UNIT ( * ) SI_UNIT ( .MILLI., .METRE. ) );
#56 = MECHANICAL_DESIGN_GEOMETRIC_PRESENTATION_REPRESENTATION (  '', ( #58 ), #1 ) ;
#57 = PRESENTATION_LAYER_ASSIGNMENT (  '', '', ( #58 ) ) ;
#58 = STYLED_ITEM ( 'NONE', ( #59 ), #37 ) ;
#59 = PRESENTATION_STYLE_ASSIGNMENT (( #60 ) ) ;
#60 = SURFACE_STYLE_USAGE ( .BOTH. , #61 ) ;
#61 = SURFACE_SIDE_STYLE ('',( #62 ) ) ;
#62 = SURFACE_STYLE_FILL_AREA ( #63 ) ;
#63 = FILL_AREA_STYLE ('',( #70 ) ) ;
#64 = COLOUR_RGB ( '',0.9568627450980391500, 0.9490196078431372100, 0.9607843137254902200 ) ;
#65 = FACE_OUTER_BOUND ( 'NONE', #112, .T. ) ;
#66 = DIRECTION ( 'NONE',  ( -0.0000000000000000000, -0.0000000000000000000, 1.000000000000000000 ) ) ;
#67 = VECTOR ( 'NONE', #66, 1000.000000000000000 ) ;
#68 = CARTESIAN_POINT ( 'NONE',  ( -25.40000000000000200, -3.163597972233376400E-015, 6.491000388932064000 ) ) ;
#69 = LINE ( 'NONE', #68, #67 ) ;
#70 = FILL_AREA_STYLE_COLOUR ( '', #64 ) ;
#71 = CARTESIAN_POINT ( 'NONE',  ( -3.110500138708827100E-015, -25.39999999999993800, -1.499724278235967200 ) ) ;
#72 = CARTESIAN_POINT ( 'NONE',  ( 0.0000000000000000000, -1.552291707248948100E-014, -2.759999999999984700 ) ) ;
#73 = SPHERICAL_SURFACE ( 'NONE', #94, 256.5899999999999700 ) ;
#74 =( GEOMETRIC_REPRESENTATION_CONTEXT ( 3 ) GLOBAL_UNCERTAINTY_ASSIGNED_CONTEXT ( ( #43 ) ) GLOBAL_UNIT_ASSIGNED_CONTEXT ( ( #3, #2, #44 ) ) REPRESENTATION_CONTEXT ( 'NONE', 'WORKASPACE' ) );
#75 = CARTESIAN_POINT ( 'NONE',  ( -25.40000000000000200, -3.163597972233376400E-015, -1.499724278235964800 ) ) ;
#76 = CARTESIAN_POINT ( 'NONE',  ( 0.0000000000000000000, 25.39999999999989900, -1.499724278235967200 ) ) ;
#77 = DIRECTION ( 'NONE',  ( 1.000000000000000000, 0.0000000000000000000, 0.0000000000000000000 ) ) ;
#78 = DIRECTION ( 'NONE',  ( -0.0000000000000000000, -0.0000000000000000000, 1.000000000000000000 ) ) ;
#79 = AXIS2_PLACEMENT_3D ( 'NONE', #7, #78, #77 ) ;
#80 = CIRCLE ( 'NONE', #79, 25.40000000000000200 ) ;
#81 = EDGE_CURVE ( 'NONE', #45, #46, #240, .T. ) ;
#82 = EDGE_CURVE ( 'NONE', #46, #15, #241, .T. ) ;
#83 = ORIENTED_EDGE ( 'NONE', *, *, #48, .T. ) ;
#84 = ORIENTED_EDGE ( 'NONE', *, *, #81, .F. ) ;
#85 = ADVANCED_FACE ( 'NONE', ( #212 ), #201, .T. ) ;
#86 = DIRECTION ( 'NONE',  ( 0.0000000000000000000, 0.0000000000000000000, -1.000000000000000000 ) ) ;
#87 = DIRECTION ( 'NONE',  ( 1.000000000000000000, 0.0000000000000000000, 0.0000000000000000000 ) ) ;
#88 = CARTESIAN_POINT ( 'NONE',  ( 0.0000000000000000000, -3.123400428885367100E-014, 253.8300000000000100 ) ) ;
#89 = AXIS2_PLACEMENT_3D ( 'NONE', #88, #87, #86 ) ;
#90 = CIRCLE ( 'NONE', #89, 256.5899999999999700 ) ;
#91 = DIRECTION ( 'NONE',  ( 0.0000000000000000000, 1.000000000000000000, 0.0000000000000000000 ) ) ;
#92 = DIRECTION ( 'NONE',  ( -1.000000000000000000, 0.0000000000000000000, 0.0000000000000000000 ) ) ;
#93 = CARTESIAN_POINT ( 'NONE',  ( 0.0000000000000000000, 3.093641511666087200E-014, -253.8300000000000100 ) ) ;
#94 = AXIS2_PLACEMENT_3D ( 'NONE', #93, #92, #91 ) ;
#95 = EDGE_CURVE ( 'NONE', #32, #33, #233, .T. ) ;
#96 = ORIENTED_EDGE ( 'NONE', *, *, #97, .F. ) ;
#97 = EDGE_CURVE ( 'NONE', #22, #33, #218, .T. ) ;
#98 = ORIENTED_EDGE ( 'NONE', *, *, #23, .F. ) ;
#99 = ORIENTED_EDGE ( 'NONE', *, *, #111, .T. ) ;
#100 = ORIENTED_EDGE ( 'NONE', *, *, #20, .F. ) ;
#101 = ADVANCED_FACE ( 'NONE', ( #183 ), #148, .T. ) ;
#102 = DIRECTION ( 'NONE',  ( -0.0000000000000000000, -0.0000000000000000000, 1.000000000000000000 ) ) ;
#103 = CARTESIAN_POINT ( 'NONE',  ( 0.0000000000000000000, -6.274098110942214900E-015, 1.499724278235969900 ) ) ;
#104 = AXIS2_PLACEMENT_3D ( 'NONE', #103, #102, #133 ) ;
#105 = CIRCLE ( 'NONE', #104, 25.40000000000000200 ) ;
#106 = FACE_OUTER_BOUND ( 'NONE', #120, .T. ) ;
#107 = ADVANCED_FACE ( 'NONE', ( #198 ), #171, .T. ) ;
#108 = EDGE_LOOP ( 'NONE', ( #30, #125, #96, #100 ) ) ;
#109 = EDGE_LOOP ( 'NONE', ( #110, #47, #28, #27 ) ) ;
#110 = ORIENTED_EDGE ( 'NONE', *, *, #95, .F. ) ;
#111 = EDGE_CURVE ( 'NONE', #46, #16, #272, .T. ) ;
#112 = EDGE_LOOP ( 'NONE', ( #24, #99, #17, #42 ) ) ;
#113 = AXIS2_PLACEMENT_3D ( 'NONE', #12, #11, #10 ) ;
#114 = CIRCLE ( 'NONE', #113, 25.40000000000000200 ) ;
#115 = ORIENTED_EDGE ( 'NONE', *, *, #116, .F. ) ;
#116 = EDGE_CURVE ( 'NONE', #117, #15, #262, .T. ) ;
#117 = VERTEX_POINT ( 'NONE', #258 ) ;
#118 = ORIENTED_EDGE ( 'NONE', *, *, #39, .T. ) ;
#119 = EDGE_LOOP ( 'NONE', ( #50, #18, #83, #36, #121, #84 ) ) ;
#120 = EDGE_LOOP ( 'NONE', ( #29, #51, #49, #122 ) ) ;
#121 = ORIENTED_EDGE ( 'NONE', *, *, #82, .F. ) ;
#122 = ORIENTED_EDGE ( 'NONE', *, *, #40, .T. ) ;
#123 = ADVANCED_FACE ( 'NONE', ( #257 ), #302, .T. ) ;
#124 = EDGE_LOOP ( 'NONE', ( #19, #34, #98, #13, #115, #118 ) ) ;
#125 = ORIENTED_EDGE ( 'NONE', *, *, #95, .T. ) ;
#126 = PRESENTATION_STYLE_ASSIGNMENT (( #127 ) ) ;
#127 = SURFACE_STYLE_USAGE ( .BOTH. , #128 ) ;
#128 = SURFACE_SIDE_STYLE ('',( #129 ) ) ;
#129 = SURFACE_STYLE_FILL_AREA ( #130 ) ;
#130 = FILL_AREA_STYLE ('',( #131 ) ) ;
#131 = FILL_AREA_STYLE_COLOUR ( '', #132 ) ;
#132 = COLOUR_RGB ( '',0.9568627450980391500, 0.9490196078431372100, 0.9607843137254902200 ) ;
#133 = DIRECTION ( 'NONE',  ( 1.000000000000000000, 0.0000000000000000000, 0.0000000000000000000 ) ) ;
#134 = SURFACE_STYLE_USAGE ( .BOTH. , #170 ) ;
#135 = COLOUR_RGB ( '',0.7960784313725489700, 0.8235294117647058400, 0.9372549019607843100 ) ;
#136 = FILL_AREA_STYLE_COLOUR ( '', #135 ) ;
#137 = AXIS2_PLACEMENT_3D ( 'NONE', #273, #236, #235 ) ;
#138 = CIRCLE ( 'NONE', #137, 25.40000000000000200 ) ;
#139 = CARTESIAN_POINT ( 'NONE',  ( 0.0000000000000000000, 3.093641511666087200E-014, -253.8300000000000100 ) ) ;
#140 = CARTESIAN_POINT ( 'NONE',  ( 0.0000000000000000000, -6.274098110942214900E-015, 1.499724278235969900 ) ) ;
#141 = DIRECTION ( 'NONE',  ( 1.000000000000000000, 0.0000000000000000000, 0.0000000000000000000 ) ) ;
#142 = DIRECTION ( 'NONE',  ( -0.0000000000000000000, -0.0000000000000000000, 1.000000000000000000 ) ) ;
#143 = CARTESIAN_POINT ( 'NONE',  ( 0.0000000000000000000, -6.274098110942214900E-015, -1.499724278235964800 ) ) ;
#144 = AXIS2_PLACEMENT_3D ( 'NONE', #143, #142, #141 ) ;
#145 = STYLED_ITEM ( 'NONE', ( #152 ), #38 ) ;
#146 = SPHERICAL_SURFACE ( 'NONE', #169, 256.5899999999999700 ) ;
#147 = CARTESIAN_POINT ( 'NONE',  ( 0.0000000000000000000, -3.123400428885367100E-014, 253.8300000000000100 ) ) ;
#148 = SPHERICAL_SURFACE ( 'NONE', #197, 256.5899999999999700 ) ;
#149 =( GEOMETRIC_REPRESENTATION_CONTEXT ( 3 ) GLOBAL_UNCERTAINTY_ASSIGNED_CONTEXT ( ( #245 ) ) GLOBAL_UNIT_ASSIGNED_CONTEXT ( ( #173, #247, #246 ) ) REPRESENTATION_CONTEXT ( 'NONE', 'WORKASPACE' ) );
#150 =( NAMED_UNIT ( * ) SI_UNIT ( $, .STERADIAN. ) SOLID_ANGLE_UNIT ( ) );
#151 =( NAMED_UNIT ( * ) PLANE_ANGLE_UNIT ( ) SI_UNIT ( $, .RADIAN. ) );
#152 = PRESENTATION_STYLE_ASSIGNMENT (( #134 ) ) ;
#153 = MECHANICAL_DESIGN_GEOMETRIC_PRESENTATION_REPRESENTATION (  '', ( #145 ), #263 ) ;
#154 = UNCERTAINTY_MEASURE_WITH_UNIT (LENGTH_MEASURE( 1.000000000000000100E-005 ), #157, 'distance_accuracy_value', 'NONE');
#155 =( NAMED_UNIT ( * ) SI_UNIT ( $, .STERADIAN. ) SOLID_ANGLE_UNIT ( ) );
#156 =( NAMED_UNIT ( * ) PLANE_ANGLE_UNIT ( ) SI_UNIT ( $, .RADIAN. ) );
#157 =( LENGTH_UNIT ( ) NAMED_UNIT ( * ) SI_UNIT ( .MILLI., .METRE. ) );
#158 = MECHANICAL_DESIGN_GEOMETRIC_PRESENTATION_REPRESENTATION (  '', ( #188 ), #172 ) ;
#159 = SURFACE_STYLE_FILL_AREA ( #185 ) ;
#160 = DIRECTION ( 'NONE',  ( 0.0000000000000000000, 1.000000000000000000, 0.0000000000000000000 ) ) ;
#161 = CARTESIAN_POINT ( 'NONE',  ( -25.40000000000000200, -3.163597972233376400E-015, 1.499724278235969900 ) ) ;
#162 = CARTESIAN_POINT ( 'NONE',  ( 0.0000000000000000000, 25.39999999999993100, 1.499724278235969900 ) ) ;
#163 = DIRECTION ( 'NONE',  ( 0.0000000000000000000, 0.0000000000000000000, -1.000000000000000000 ) ) ;
#164 = DIRECTION ( 'NONE',  ( 1.000000000000000000, 0.0000000000000000000, 0.0000000000000000000 ) ) ;
#165 =( LENGTH_UNIT ( ) NAMED_UNIT ( * ) SI_UNIT ( .MILLI., .METRE. ) );
#166 = MECHANICAL_DESIGN_GEOMETRIC_PRESENTATION_REPRESENTATION (  '', ( #168 ), #202 ) ;
#167 = PRESENTATION_LAYER_ASSIGNMENT (  '', '', ( #168 ) ) ;
#168 = STYLED_ITEM ( 'NONE', ( #206 ), #85 ) ;
#169 = AXIS2_PLACEMENT_3D ( 'NONE', #186, #234, #160 ) ;
#170 = SURFACE_SIDE_STYLE ('',( #159 ) ) ;
#171 = SPHERICAL_SURFACE ( 'NONE', #271, 256.5899999999999700 ) ;
#172 =( GEOMETRIC_REPRESENTATION_CONTEXT ( 3 ) GLOBAL_UNCERTAINTY_ASSIGNED_CONTEXT ( ( #154 ) ) GLOBAL_UNIT_ASSIGNED_CONTEXT ( ( #157, #156, #155 ) ) REPRESENTATION_CONTEXT ( 'NONE', 'WORKASPACE' ) );
#173 =( LENGTH_UNIT ( ) NAMED_UNIT ( * ) SI_UNIT ( .MILLI., .METRE. ) );
#174 = MECHANICAL_DESIGN_GEOMETRIC_PRESENTATION_REPRESENTATION (  '', ( #176 ), #149 ) ;
#175 = PRESENTATION_LAYER_ASSIGNMENT (  '', '', ( #176 ) ) ;
#176 = STYLED_ITEM ( 'NONE', ( #177 ), #101 ) ;
#177 = PRESENTATION_STYLE_ASSIGNMENT (( #178 ) ) ;
#178 = SURFACE_STYLE_USAGE ( .BOTH. , #179 ) ;
#179 = SURFACE_SIDE_STYLE ('',( #180 ) ) ;
#180 = SURFACE_STYLE_FILL_AREA ( #181 ) ;
#181 = FILL_AREA_STYLE ('',( #219 ) ) ;
#182 = COLOUR_RGB ( '',0.9568627450980391500, 0.9490196078431372100, 0.9607843137254902200 ) ;
#183 = FACE_OUTER_BOUND ( 'NONE', #109, .T. ) ;
#184 =( LENGTH_UNIT ( ) NAMED_UNIT ( * ) SI_UNIT ( .MILLI., .METRE. ) );
#185 = FILL_AREA_STYLE ('',( #136 ) ) ;
#186 = CARTESIAN_POINT ( 'NONE',  ( 0.0000000000000000000, 3.093641511666087200E-014, -253.8300000000000100 ) ) ;
#187 = PRESENTATION_LAYER_ASSIGNMENT (  '', '', ( #188 ) ) ;
#188 = STYLED_ITEM ( 'NONE', ( #189 ), #107 ) ;
#189 = PRESENTATION_STYLE_ASSIGNMENT (( #190 ) ) ;
#190 = SURFACE_STYLE_USAGE ( .BOTH. , #191 ) ;
#191 = SURFACE_SIDE_STYLE ('',( #192 ) ) ;
#192 = SURFACE_STYLE_FILL_AREA ( #193 ) ;
#193 = FILL_AREA_STYLE ('',( #199 ) ) ;
#194 = COLOUR_RGB ( '',0.9568627450980391500, 0.9490196078431372100, 0.9607843137254902200 ) ;
#195 = DIRECTION ( 'NONE',  ( 0.0000000000000000000, 1.000000000000000000, 0.0000000000000000000 ) ) ;
#196 = DIRECTION ( 'NONE',  ( -1.000000000000000000, 0.0000000000000000000, 0.0000000000000000000 ) ) ;
#197 = AXIS2_PLACEMENT_3D ( 'NONE', #147, #196, #195 ) ;
#198 = FACE_OUTER_BOUND ( 'NONE', #108, .T. ) ;
#199 = FILL_AREA_STYLE_COLOUR ( '', #194 ) ;
#200 = AXIS2_PLACEMENT_3D ( 'NONE', #232, #231, #230 ) ;
#201 = CYLINDRICAL_SURFACE ( 'NONE', #200, 25.40000000000000200 ) ;
#202 =( GEOMETRIC_REPRESENTATION_CONTEXT ( 3 ) GLOBAL_UNCERTAINTY_ASSIGNED_CONTEXT ( ( #274 ) ) GLOBAL_UNIT_ASSIGNED_CONTEXT ( ( #165, #151, #150 ) ) REPRESENTATION_CONTEXT ( 'NONE', 'WORKASPACE' ) );
#203 = UNCERTAINTY_MEASURE_WITH_UNIT (LENGTH_MEASURE( 1.000000000000000100E-005 ), #184, 'distance_accuracy_value', 'NONE');
#204 =( NAMED_UNIT ( * ) SI_UNIT ( $, .STERADIAN. ) SOLID_ANGLE_UNIT ( ) );
#205 =( NAMED_UNIT ( * ) PLANE_ANGLE_UNIT ( ) SI_UNIT ( $, .RADIAN. ) );
#206 = PRESENTATION_STYLE_ASSIGNMENT (( #207 ) ) ;
#207 = SURFACE_STYLE_USAGE ( .BOTH. , #208 ) ;
#208 = SURFACE_SIDE_STYLE ('',( #209 ) ) ;
#209 = SURFACE_STYLE_FILL_AREA ( #210 ) ;
#210 = FILL_AREA_STYLE ('',( #228 ) ) ;
#211 = COLOUR_RGB ( '',0.9568627450980391500, 0.9490196078431372100, 0.9607843137254902200 ) ;
#212 = FACE_OUTER_BOUND ( 'NONE', #119, .T. ) ;
#213 = DIRECTION ( 'NONE',  ( 1.000000000000000000, 0.0000000000000000000, 0.0000000000000000000 ) ) ;
#214 = DIRECTION ( 'NONE',  ( 1.000000000000000000, 0.0000000000000000000, 0.0000000000000000000 ) ) ;
#215 = DIRECTION ( 'NONE',  ( -0.0000000000000000000, -0.0000000000000000000, 1.000000000000000000 ) ) ;
#216 = CARTESIAN_POINT ( 'NONE',  ( 0.0000000000000000000, -6.274098110942214900E-015, -1.499724278235964800 ) ) ;
#217 = AXIS2_PLACEMENT_3D ( 'NONE', #216, #215, #214 ) ;
#218 = CIRCLE ( 'NONE', #217, 25.40000000000000200 ) ;
#219 = FILL_AREA_STYLE_COLOUR ( '', #182 ) ;
#220 = DIRECTION ( 'NONE',  ( -1.224606353822377300E-016, -1.000000000000000000, 0.0000000000000000000 ) ) ;
#221 = DIRECTION ( 'NONE',  ( -1.000000000000000000, 1.224606353822377300E-016, 0.0000000000000000000 ) ) ;
#222 = AXIS2_PLACEMENT_3D ( 'NONE', #229, #221, #220 ) ;
#223 = AXIS2_PLACEMENT_3D ( 'NONE', #139, #164, #163 ) ;
#224 = CIRCLE ( 'NONE', #223, 256.5899999999999700 ) ;
#225 = DIRECTION ( 'NONE',  ( -0.0000000000000000000, -0.0000000000000000000, 1.000000000000000000 ) ) ;
#226 = CARTESIAN_POINT ( 'NONE',  ( 0.0000000000000000000, -6.274098110942214900E-015, 1.499724278235969900 ) ) ;
#227 = AXIS2_PLACEMENT_3D ( 'NONE', #226, #225, #213 ) ;
#228 = FILL_AREA_STYLE_COLOUR ( '', #211 ) ;
#229 = CARTESIAN_POINT ( 'NONE',  ( 0.0000000000000000000, -3.123400428885367100E-014, 253.8300000000000100 ) ) ;
#230 = DIRECTION ( 'NONE',  ( 1.000000000000000000, 0.0000000000000000000, 0.0000000000000000000 ) ) ;
#231 = DIRECTION ( 'NONE',  ( -0.0000000000000000000, -0.0000000000000000000, 1.000000000000000000 ) ) ;
#232 = CARTESIAN_POINT ( 'NONE',  ( 0.0000000000000000000, -6.274098110942214900E-015, 6.491000388932064000 ) ) ;
#233 = CIRCLE ( 'NONE', #222, 256.5899999999999700 ) ;
#234 = DIRECTION ( 'NONE',  ( -1.000000000000000000, 0.0000000000000000000, 0.0000000000000000000 ) ) ;
#235 = DIRECTION ( 'NONE',  ( 1.000000000000000000, 0.0000000000000000000, 0.0000000000000000000 ) ) ;
#236 = DIRECTION ( 'NONE',  ( -0.0000000000000000000, -0.0000000000000000000, 1.000000000000000000 ) ) ;
#237 = DIRECTION ( 'NONE',  ( 1.000000000000000000, 0.0000000000000000000, 0.0000000000000000000 ) ) ;
#238 = DIRECTION ( 'NONE',  ( -0.0000000000000000000, -0.0000000000000000000, 1.000000000000000000 ) ) ;
#239 = AXIS2_PLACEMENT_3D ( 'NONE', #140, #238, #237 ) ;
#240 = CIRCLE ( 'NONE', #239, 25.40000000000000200 ) ;
#241 = CIRCLE ( 'NONE', #227, 25.40000000000000200 ) ;
#242 = CIRCLE ( 'NONE', #144, 25.40000000000000200 ) ;
#243 = CARTESIAN_POINT ( 'NONE',  ( -3.110500138708830300E-015, -25.39999999999990600, 1.499724278235969900 ) ) ;
#244 = PRESENTATION_LAYER_ASSIGNMENT (  '', '', ( #145 ) ) ;
#245 = UNCERTAINTY_MEASURE_WITH_UNIT (LENGTH_MEASURE( 1.000000000000000100E-005 ), #173, 'distance_accuracy_value', 'NONE');
#246 =( NAMED_UNIT ( * ) SI_UNIT ( $, .STERADIAN. ) SOLID_ANGLE_UNIT ( ) );
#247 =( NAMED_UNIT ( * ) PLANE_ANGLE_UNIT ( ) SI_UNIT ( $, .RADIAN. ) );
#248 = PRESENTATION_LAYER_ASSIGNMENT (  '', '', ( #249 ) ) ;
#249 = STYLED_ITEM ( 'NONE', ( #250 ), #123 ) ;
#250 = PRESENTATION_STYLE_ASSIGNMENT (( #251 ) ) ;
#251 = SURFACE_STYLE_USAGE ( .BOTH. , #252 ) ;
#252 = SURFACE_SIDE_STYLE ('',( #253 ) ) ;
#253 = SURFACE_STYLE_FILL_AREA ( #254 ) ;
#254 = FILL_AREA_STYLE ('',( #255 ) ) ;
#255 = FILL_AREA_STYLE_COLOUR ( '', #256 ) ;
#256 = COLOUR_RGB ( '',0.9568627450980391500, 0.9490196078431372100, 0.9607843137254902200 ) ;
#257 = FACE_OUTER_BOUND ( 'NONE', #124, .T. ) ;
#258 = CARTESIAN_POINT ( 'NONE',  ( 25.40000000000000200, -6.274098110942214900E-015, -1.499724278235964800 ) ) ;
#259 = DIRECTION ( 'NONE',  ( -0.0000000000000000000, -0.0000000000000000000, 1.000000000000000000 ) ) ;
#260 = VECTOR ( 'NONE', #259, 1000.000000000000000 ) ;
#261 = CARTESIAN_POINT ( 'NONE',  ( 25.40000000000000200, -6.274098110942214900E-015, 6.491000388932064000 ) ) ;
#262 = LINE ( 'NONE', #261, #260 ) ;
#263 =( GEOMETRIC_REPRESENTATION_CONTEXT ( 3 ) GLOBAL_UNCERTAINTY_ASSIGNED_CONTEXT ( ( #203 ) ) GLOBAL_UNIT_ASSIGNED_CONTEXT ( ( #184, #205, #204 ) ) REPRESENTATION_CONTEXT ( 'NONE', 'WORKASPACE' ) );
#264 = DIRECTION ( 'NONE',  ( -1.224606353822377300E-016, -1.000000000000000000, 0.0000000000000000000 ) ) ;
#265 = DIRECTION ( 'NONE',  ( -1.000000000000000000, 1.224606353822377300E-016, 0.0000000000000000000 ) ) ;
#266 = CARTESIAN_POINT ( 'NONE',  ( 0.0000000000000000000, 3.093641511666087200E-014, -253.8300000000000100 ) ) ;
#267 = AXIS2_PLACEMENT_3D ( 'NONE', #266, #265, #264 ) ;
#268 = DIRECTION ( 'NONE',  ( 0.0000000000000000000, 1.000000000000000000, 0.0000000000000000000 ) ) ;
#269 = DIRECTION ( 'NONE',  ( -1.000000000000000000, 0.0000000000000000000, 0.0000000000000000000 ) ) ;
#270 = CARTESIAN_POINT ( 'NONE',  ( 0.0000000000000000000, -3.123400428885367100E-014, 253.8300000000000100 ) ) ;
#271 = AXIS2_PLACEMENT_3D ( 'NONE', #270, #269, #268 ) ;
#272 = CIRCLE ( 'NONE', #267, 256.5899999999999700 ) ;
#273 = CARTESIAN_POINT ( 'NONE',  ( 0.0000000000000000000, -6.274098110942214900E-015, -1.499724278235964800 ) ) ;
#274 = UNCERTAINTY_MEASURE_WITH_UNIT (LENGTH_MEASURE( 1.000000000000000100E-005 ), #165, 'distance_accuracy_value', 'NONE');
#275 = DIRECTION ( 'NONE',  ( 0.0000000000000000000, 0.0000000000000000000, 1.000000000000000000 ) ) ;
#276 = ADVANCED_BREP_SHAPE_REPRESENTATION ( '3382-E0W', ( #38, #314 ), #282 ) ;
#277 = APPLICATION_PROTOCOL_DEFINITION ( 'draft international standard', 'automotive_design', 1998, #278 ) ;
#278 = APPLICATION_CONTEXT ( 'automotive_design' ) ;
#279 = PRODUCT ( '3382-E0W', '3382-E0W', '', ( #280 ) ) ;
#280 = PRODUCT_CONTEXT ( 'NONE', #300, 'mechanical' ) ;
#281 = APPLICATION_PROTOCOL_DEFINITION ( 'draft international standard', 'automotive_design', 1998, #300 ) ;
#282 =( GEOMETRIC_REPRESENTATION_CONTEXT ( 3 ) GLOBAL_UNCERTAINTY_ASSIGNED_CONTEXT ( ( #310 ) ) GLOBAL_UNIT_ASSIGNED_CONTEXT ( ( #288, #319, #311 ) ) REPRESENTATION_CONTEXT ( 'NONE', 'WORKASPACE' ) );
#283 = DIRECTION ( 'NONE',  ( 1.000000000000000000, 0.0000000000000000000, 0.0000000000000000000 ) ) ;
#284 = DIRECTION ( 'NONE',  ( -0.0000000000000000000, -0.0000000000000000000, 1.000000000000000000 ) ) ;
#285 = UNCERTAINTY_MEASURE_WITH_UNIT (LENGTH_MEASURE( 1.000000000000000100E-005 ), #295, 'distance_accuracy_value', 'NONE');
#286 =( NAMED_UNIT ( * ) SI_UNIT ( $, .STERADIAN. ) SOLID_ANGLE_UNIT ( ) );
#287 = CARTESIAN_POINT ( 'NONE',  ( 0.0000000000000000000, -6.274098110942214900E-015, 6.491000388932064000 ) ) ;
#288 =( LENGTH_UNIT ( ) NAMED_UNIT ( * ) SI_UNIT ( .MILLI., .METRE. ) );
#289 = CARTESIAN_POINT ( 'NONE',  ( 0.0000000000000000000, 0.0000000000000000000, 0.0000000000000000000 ) ) ;
#290 = PRODUCT_DEFINITION_SHAPE ( 'NONE', 'NONE',  #293 ) ;
#291 = PRODUCT_RELATED_PRODUCT_CATEGORY ( 'part', '', ( #279 ) ) ;
#292 = PRODUCT_DEFINITION_FORMATION_WITH_SPECIFIED_SOURCE ( 'ANY', '', #279, .NOT_KNOWN. ) ;
#293 = PRODUCT_DEFINITION ( 'UNKNOWN', '', #292, #294 ) ;
#294 = PRODUCT_DEFINITION_CONTEXT ( 'detailed design', #278, 'design' ) ;
#295 =( LENGTH_UNIT ( ) NAMED_UNIT ( * ) SI_UNIT ( .MILLI., .METRE. ) );
#296 = MECHANICAL_DESIGN_GEOMETRIC_PRESENTATION_REPRESENTATION (  '', ( #316 ), #298 ) ;
#297 =( LENGTH_UNIT ( ) NAMED_UNIT ( * ) SI_UNIT ( .MILLI., .METRE. ) );
#298 =( GEOMETRIC_REPRESENTATION_CONTEXT ( 3 ) GLOBAL_UNCERTAINTY_ASSIGNED_CONTEXT ( ( #285 ) ) GLOBAL_UNIT_ASSIGNED_CONTEXT ( ( #295, #322, #286 ) ) REPRESENTATION_CONTEXT ( 'NONE', 'WORKASPACE' ) );
#299 = SHAPE_DEFINITION_REPRESENTATION ( #290, #276 ) ;
#300 = APPLICATION_CONTEXT ( 'automotive_design' ) ;
#301 = AXIS2_PLACEMENT_3D ( 'NONE', #287, #284, #283 ) ;
#302 = CYLINDRICAL_SURFACE ( 'NONE', #301, 25.40000000000000200 ) ;
#303 =( GEOMETRIC_REPRESENTATION_CONTEXT ( 3 ) GLOBAL_UNCERTAINTY_ASSIGNED_CONTEXT ( ( #309 ) ) GLOBAL_UNIT_ASSIGNED_CONTEXT ( ( #297, #312, #320 ) ) REPRESENTATION_CONTEXT ( 'NONE', 'WORKASPACE' ) );
#304 = SURFACE_SIDE_STYLE ('',( #305 ) ) ;
#305 = SURFACE_STYLE_FILL_AREA ( #306 ) ;
#306 = FILL_AREA_STYLE ('',( #307 ) ) ;
#307 = FILL_AREA_STYLE_COLOUR ( '', #308 ) ;
#308 = COLOUR_RGB ( '',0.7960784313725489700, 0.8235294117647058400, 0.9372549019607843100 ) ;
#309 = UNCERTAINTY_MEASURE_WITH_UNIT (LENGTH_MEASURE( 1.000000000000000100E-005 ), #297, 'distance_accuracy_value', 'NONE');
#310 = UNCERTAINTY_MEASURE_WITH_UNIT (LENGTH_MEASURE( 1.000000000000000100E-005 ), #288, 'distance_accuracy_value', 'NONE');
#311 =( NAMED_UNIT ( * ) SI_UNIT ( $, .STERADIAN. ) SOLID_ANGLE_UNIT ( ) );
#312 =( NAMED_UNIT ( * ) PLANE_ANGLE_UNIT ( ) SI_UNIT ( $, .RADIAN. ) );
#313 = DIRECTION ( 'NONE',  ( 1.000000000000000000, 0.0000000000000000000, 0.0000000000000000000 ) ) ;
#314 = AXIS2_PLACEMENT_3D ( 'NONE', #289, #275, #313 ) ;
#315 = PRESENTATION_LAYER_ASSIGNMENT (  '', '', ( #316 ) ) ;
#316 = STYLED_ITEM ( 'NONE', ( #317 ), #276 ) ;
#317 = PRESENTATION_STYLE_ASSIGNMENT (( #318 ) ) ;
#318 = SURFACE_STYLE_USAGE ( .BOTH. , #304 ) ;
#319 =( NAMED_UNIT ( * ) PLANE_ANGLE_UNIT ( ) SI_UNIT ( $, .RADIAN. ) );
#320 =( NAMED_UNIT ( * ) SI_UNIT ( $, .STERADIAN. ) SOLID_ANGLE_UNIT ( ) );
#321 = MECHANICAL_DESIGN_GEOMETRIC_PRESENTATION_REPRESENTATION (  '', ( #249 ), #303 ) ;
#322 =( NAMED_UNIT ( * ) PLANE_ANGLE_UNIT ( ) SI_UNIT ( $, .RADIAN. ) );
ENDSEC;
END-ISO-10303-21;
