ISO-10303-21;
HEADER;
FILE_DESCRIPTION (( 'STEP AP203' ),
    '1' );
FILE_NAME ('Web Model 45311_36978.step',
    '2019-01-07T15:41:03',
    ( '' ),
    ( '' ),
    'SwSTEP 2.0',
    'SolidWorks 2016',
    '' );
FILE_SCHEMA (( 'CONFIG_CONTROL_DESIGN' ));
ENDSEC;

DATA;
#1 = LOCAL_TIME ( 10, 41, 3.000000000000000000, #13 ) ;
#2 = DIRECTION ( 'NONE',  ( 0.0000000000000000000, 0.0000000000000000000, 1.000000000000000000 ) ) ;
#3 = DIRECTION ( 'NONE',  ( 1.000000000000000000, 0.0000000000000000000, -0.0000000000000000000 ) ) ;
#4 = MECHANICAL_CONTEXT ( 'NONE', #121, 'mechanical' ) ;
#5 = CIRCLE ( 'NONE', #84, 12.50000000000000000 ) ;
#6 =( NAMED_UNIT ( * ) PLANE_ANGLE_UNIT ( ) SI_UNIT ( $, .RADIAN. ) );
#7 = EDGE_CURVE ( 'NONE', #9, #22, #61, .T. ) ;
#8 = PERSON_AND_ORGANIZATION ( #144, #23 ) ;
#9 = VERTEX_POINT ( 'NONE', #162 ) ;
#10 = AXIS2_PLACEMENT_3D ( 'NONE', #42, #70, #37 ) ;
#11 = APPROVAL_PERSON_ORGANIZATION ( #118, #44, #153 ) ;
#12 = APPROVAL ( #167, 'UNSPECIFIED' ) ;
#13 = COORDINATED_UNIVERSAL_TIME_OFFSET ( 5, 0, .BEHIND. ) ;
#14 = VERTEX_POINT ( 'NONE', #110 ) ;
#15 = PERSON_AND_ORGANIZATION ( #144, #23 ) ;
#16 = DIRECTION ( 'NONE',  ( 1.000000000000000000, 0.0000000000000000000, 0.0000000000000000000 ) ) ;
#17 = CARTESIAN_POINT ( 'NONE',  ( 0.0000000000000000000, 0.0000000000000000000, -1.000000000000000000 ) ) ;
#18 = PRODUCT_DEFINITION ( 'UNKNOWN', '', #174, #133 ) ;
#19 = DIRECTION ( 'NONE',  ( 1.000000000000000000, 0.0000000000000000000, 0.0000000000000000000 ) ) ;
#20 = PERSON_AND_ORGANIZATION_ROLE ( 'design_owner' ) ;
#21 = APPROVAL_DATE_TIME ( #123, #131 ) ;
#22 = VERTEX_POINT ( 'NONE', #136 ) ;
#23 = ORGANIZATION ( 'UNSPECIFIED', 'UNSPECIFIED', '' ) ;
#24 = FACE_OUTER_BOUND ( 'NONE', #155, .T. ) ;
#25 = CC_DESIGN_APPROVAL ( #131, ( #174 ) ) ;
#26 = CIRCLE ( 'NONE', #107, 12.50000000000000000 ) ;
#27 = ORIENTED_EDGE ( 'NONE', *, *, #83, .F. ) ;
#28 = DIRECTION ( 'NONE',  ( 0.0000000000000000000, 0.0000000000000000000, 1.000000000000000000 ) ) ;
#29 = ADVANCED_FACE ( 'NONE', ( #24 ), #151, .T. ) ;
#30 = PERSON_AND_ORGANIZATION ( #144, #23 ) ;
#31 = DIRECTION ( 'NONE',  ( -0.0000000000000000000, -0.0000000000000000000, -1.000000000000000000 ) ) ;
#32 = ADVANCED_FACE ( 'NONE', ( #111 ), #38, .T. ) ;
#33 = CARTESIAN_POINT ( 'NONE',  ( 0.0000000000000000000, 0.0000000000000000000, 0.0000000000000000000 ) ) ;
#34 = LINE ( 'NONE', #138, #169 ) ;
#35 = DATE_AND_TIME ( #114, #74 ) ;
#36 = CALENDAR_DATE ( 2019, 7, 1 ) ;
#37 = DIRECTION ( 'NONE',  ( 1.000000000000000000, 0.0000000000000000000, -0.0000000000000000000 ) ) ;
#38 = CYLINDRICAL_SURFACE ( 'NONE', #116, 12.50000000000000000 ) ;
#39 = DIRECTION ( 'NONE',  ( -0.0000000000000000000, -0.0000000000000000000, -1.000000000000000000 ) ) ;
#40 = AXIS2_PLACEMENT_3D ( 'NONE', #33, #100, #122 ) ;
#41 = DIRECTION ( 'NONE',  ( 0.0000000000000000000, 0.0000000000000000000, 1.000000000000000000 ) ) ;
#42 = CARTESIAN_POINT ( 'NONE',  ( 0.0000000000000000000, 0.0000000000000000000, 1.000000000000000000 ) ) ;
#43 = PERSON_AND_ORGANIZATION_ROLE ( 'design_supplier' ) ;
#44 = APPROVAL ( #125, 'UNSPECIFIED' ) ;
#45 = APPLICATION_PROTOCOL_DEFINITION ( 'international standard', 'config_control_design', 1994, #139 ) ;
#46 = APPROVAL_STATUS ( 'not_yet_approved' ) ;
#47 = APPROVAL_PERSON_ORGANIZATION ( #69, #131, #62 ) ;
#48 = ORIENTED_EDGE ( 'NONE', *, *, #109, .T. ) ;
#49 = PRODUCT ( 'Web Model 45311_36978', 'Web Model 45311_36978', '', ( #4 ) ) ;
#50 = EDGE_LOOP ( 'NONE', ( #117, #27, #113, #48 ) ) ;
#51 = COORDINATED_UNIVERSAL_TIME_OFFSET ( 5, 0, .BEHIND. ) ;
#52 = CARTESIAN_POINT ( 'NONE',  ( 12.50000000000000000, 1.530808498934191500E-015, 1.000000000000000000 ) ) ;
#53 = MANIFOLD_SOLID_BREP ( 'Boss-Extrude1', #65 ) ;
#54 = DIRECTION ( 'NONE',  ( 0.0000000000000000000, 0.0000000000000000000, 1.000000000000000000 ) ) ;
#55 = ORIENTED_EDGE ( 'NONE', *, *, #102, .F. ) ;
#56 = AXIS2_PLACEMENT_3D ( 'NONE', #95, #28, #3 ) ;
#57 = DIRECTION ( 'NONE',  ( -0.0000000000000000000, -0.0000000000000000000, -1.000000000000000000 ) ) ;
#58 = APPLICATION_PROTOCOL_DEFINITION ( 'international standard', 'config_control_design', 1994, #121 ) ;
#59 = PERSON_AND_ORGANIZATION_ROLE ( 'classification_officer' ) ;
#60 = PRODUCT_DEFINITION_SHAPE ( 'NONE', 'NONE',  #18 ) ;
#61 = CIRCLE ( 'NONE', #81, 12.50000000000000000 ) ;
#62 = APPROVAL_ROLE ( '' ) ;
#63 = VERTEX_POINT ( 'NONE', #152 ) ;
#64 = CIRCLE ( 'NONE', #124, 12.50000000000000000 ) ;
#65 = CLOSED_SHELL ( 'NONE', ( #32, #77, #29, #119 ) ) ;
#66 = LOCAL_TIME ( 10, 41, 3.000000000000000000, #51 ) ;
#67 = CC_DESIGN_PERSON_AND_ORGANIZATION_ASSIGNMENT ( #15, #20, ( #49 ) ) ;
#68 = APPROVAL_DATE_TIME ( #103, #44 ) ;
#69 = PERSON_AND_ORGANIZATION ( #144, #23 ) ;
#70 = DIRECTION ( 'NONE',  ( 0.0000000000000000000, 0.0000000000000000000, 1.000000000000000000 ) ) ;
#71 = EDGE_LOOP ( 'NONE', ( #55, #106, #97, #142 ) ) ;
#72 = CC_DESIGN_PERSON_AND_ORGANIZATION_ASSIGNMENT ( #30, #168, ( #174 ) ) ;
#73 = DATE_TIME_ROLE ( 'classification_date' ) ;
#74 = LOCAL_TIME ( 10, 41, 3.000000000000000000, #128 ) ;
#75 =( LENGTH_UNIT ( ) NAMED_UNIT ( * ) SI_UNIT ( .MILLI., .METRE. ) );
#76 = CC_DESIGN_DATE_AND_TIME_ASSIGNMENT ( #173, #73, ( #158 ) ) ;
#77 = ADVANCED_FACE ( 'NONE', ( #129 ), #92, .T. ) ;
#78 = CC_DESIGN_PERSON_AND_ORGANIZATION_ASSIGNMENT ( #171, #140, ( #18 ) ) ;
#79 = DATE_AND_TIME ( #141, #1 ) ;
#80 = ORIENTED_EDGE ( 'NONE', *, *, #83, .T. ) ;
#81 = AXIS2_PLACEMENT_3D ( 'NONE', #112, #164, #19 ) ;
#82 = LOCAL_TIME ( 10, 41, 3.000000000000000000, #157 ) ;
#83 = EDGE_CURVE ( 'NONE', #63, #14, #64, .T. ) ;
#84 = AXIS2_PLACEMENT_3D ( 'NONE', #17, #54, #16 ) ;
#85 = CARTESIAN_POINT ( 'NONE',  ( 0.0000000000000000000, 0.0000000000000000000, 1.000000000000000000 ) ) ;
#86 = CALENDAR_DATE ( 2019, 7, 1 ) ;
#87 = CARTESIAN_POINT ( 'NONE',  ( 0.0000000000000000000, 0.0000000000000000000, 1.000000000000000000 ) ) ;
#88 = DIRECTION ( 'NONE',  ( 1.000000000000000000, 0.0000000000000000000, 0.0000000000000000000 ) ) ;
#89 = ORIENTED_EDGE ( 'NONE', *, *, #7, .F. ) ;
#90 = CC_DESIGN_DATE_AND_TIME_ASSIGNMENT ( #79, #126, ( #18 ) ) ;
#91 = CC_DESIGN_APPROVAL ( #12, ( #18 ) ) ;
#92 = CYLINDRICAL_SURFACE ( 'NONE', #135, 12.50000000000000000 ) ;
#93 = ADVANCED_BREP_SHAPE_REPRESENTATION ( 'Web Model 45311_36978', ( #53, #40 ), #145 ) ;
#94 = CC_DESIGN_SECURITY_CLASSIFICATION ( #158, ( #174 ) ) ;
#95 = CARTESIAN_POINT ( 'NONE',  ( 0.0000000000000000000, 0.0000000000000000000, -1.000000000000000000 ) ) ;
#96 = PLANE ( 'NONE',  #56 ) ;
#97 = ORIENTED_EDGE ( 'NONE', *, *, #7, .T. ) ;
#98 = PERSON_AND_ORGANIZATION ( #144, #23 ) ;
#99 = DIRECTION ( 'NONE',  ( -0.0000000000000000000, -0.0000000000000000000, -1.000000000000000000 ) ) ;
#100 = DIRECTION ( 'NONE',  ( 0.0000000000000000000, 0.0000000000000000000, 1.000000000000000000 ) ) ;
#101 = SECURITY_CLASSIFICATION_LEVEL ( 'unclassified' ) ;
#102 = EDGE_CURVE ( 'NONE', #14, #63, #26, .T. ) ;
#103 = DATE_AND_TIME ( #36, #149 ) ;
#104 = UNCERTAINTY_MEASURE_WITH_UNIT (LENGTH_MEASURE( 1.000000000000000100E-005 ), #75, 'distance_accuracy_value', 'NONE');
#105 = VECTOR ( 'NONE', #99, 1000.000000000000000 ) ;
#106 = ORIENTED_EDGE ( 'NONE', *, *, #127, .T. ) ;
#107 = AXIS2_PLACEMENT_3D ( 'NONE', #120, #2, #88 ) ;
#108 = APPROVAL_PERSON_ORGANIZATION ( #8, #12, #165 ) ;
#109 = EDGE_CURVE ( 'NONE', #22, #9, #5, .T. ) ;
#110 = CARTESIAN_POINT ( 'NONE',  ( 12.50000000000000000, 1.530808498934191500E-015, 1.000000000000000000 ) ) ;
#111 = FACE_OUTER_BOUND ( 'NONE', #71, .T. ) ;
#112 = CARTESIAN_POINT ( 'NONE',  ( 0.0000000000000000000, 0.0000000000000000000, -1.000000000000000000 ) ) ;
#113 = ORIENTED_EDGE ( 'NONE', *, *, #148, .T. ) ;
#114 = CALENDAR_DATE ( 2019, 7, 1 ) ;
#115 =( NAMED_UNIT ( * ) SI_UNIT ( $, .STERADIAN. ) SOLID_ANGLE_UNIT ( ) );
#116 = AXIS2_PLACEMENT_3D ( 'NONE', #87, #57, #150 ) ;
#117 = ORIENTED_EDGE ( 'NONE', *, *, #127, .F. ) ;
#118 = PERSON_AND_ORGANIZATION ( #144, #23 ) ;
#119 = ADVANCED_FACE ( 'NONE', ( #143 ), #96, .F. ) ;
#120 = CARTESIAN_POINT ( 'NONE',  ( 0.0000000000000000000, 0.0000000000000000000, 1.000000000000000000 ) ) ;
#121 = APPLICATION_CONTEXT ( 'configuration controlled 3d designs of mechanical parts and assemblies' ) ;
#122 = DIRECTION ( 'NONE',  ( 1.000000000000000000, 0.0000000000000000000, 0.0000000000000000000 ) ) ;
#123 = DATE_AND_TIME ( #137, #66 ) ;
#124 = AXIS2_PLACEMENT_3D ( 'NONE', #175, #41, #160 ) ;
#125 = APPROVAL_STATUS ( 'not_yet_approved' ) ;
#126 = DATE_TIME_ROLE ( 'creation_date' ) ;
#127 = EDGE_CURVE ( 'NONE', #14, #9, #146, .T. ) ;
#128 = COORDINATED_UNIVERSAL_TIME_OFFSET ( 5, 0, .BEHIND. ) ;
#129 = FACE_OUTER_BOUND ( 'NONE', #50, .T. ) ;
#130 = PERSON_AND_ORGANIZATION ( #144, #23 ) ;
#131 = APPROVAL ( #46, 'UNSPECIFIED' ) ;
#132 = COORDINATED_UNIVERSAL_TIME_OFFSET ( 5, 0, .BEHIND. ) ;
#133 = DESIGN_CONTEXT ( 'detailed design', #139, 'design' ) ;
#134 = CC_DESIGN_APPROVAL ( #44, ( #158 ) ) ;
#135 = AXIS2_PLACEMENT_3D ( 'NONE', #85, #39, #163 ) ;
#136 = CARTESIAN_POINT ( 'NONE',  ( -12.50000000000000000, 0.0000000000000000000, -1.000000000000000000 ) ) ;
#137 = CALENDAR_DATE ( 2019, 7, 1 ) ;
#138 = CARTESIAN_POINT ( 'NONE',  ( -12.50000000000000000, 0.0000000000000000000, 1.000000000000000000 ) ) ;
#139 = APPLICATION_CONTEXT ( 'configuration controlled 3d designs of mechanical parts and assemblies' ) ;
#140 = PERSON_AND_ORGANIZATION_ROLE ( 'creator' ) ;
#141 = CALENDAR_DATE ( 2019, 7, 1 ) ;
#142 = ORIENTED_EDGE ( 'NONE', *, *, #148, .F. ) ;
#143 = FACE_OUTER_BOUND ( 'NONE', #166, .T. ) ;
#144 = PERSON ( 'UNSPECIFIED', 'UNSPECIFIED', 'UNSPECIFIED', ('UNSPECIFIED'), ('UNSPECIFIED'), ('UNSPECIFIED') ) ;
#145 =( GEOMETRIC_REPRESENTATION_CONTEXT ( 3 ) GLOBAL_UNCERTAINTY_ASSIGNED_CONTEXT ( ( #104 ) ) GLOBAL_UNIT_ASSIGNED_CONTEXT ( ( #75, #6, #115 ) ) REPRESENTATION_CONTEXT ( 'NONE', 'WORKASPACE' ) );
#146 = LINE ( 'NONE', #52, #105 ) ;
#147 = ORIENTED_EDGE ( 'NONE', *, *, #109, .F. ) ;
#148 = EDGE_CURVE ( 'NONE', #63, #22, #34, .T. ) ;
#149 = LOCAL_TIME ( 10, 41, 3.000000000000000000, #132 ) ;
#150 = DIRECTION ( 'NONE',  ( -1.000000000000000000, 0.0000000000000000000, 0.0000000000000000000 ) ) ;
#151 = PLANE ( 'NONE',  #10 ) ;
#152 = CARTESIAN_POINT ( 'NONE',  ( -12.50000000000000000, 0.0000000000000000000, 1.000000000000000000 ) ) ;
#153 = APPROVAL_ROLE ( '' ) ;
#154 = CC_DESIGN_PERSON_AND_ORGANIZATION_ASSIGNMENT ( #98, #59, ( #158 ) ) ;
#155 = EDGE_LOOP ( 'NONE', ( #80, #172 ) ) ;
#156 = CC_DESIGN_PERSON_AND_ORGANIZATION_ASSIGNMENT ( #130, #43, ( #174 ) ) ;
#157 = COORDINATED_UNIVERSAL_TIME_OFFSET ( 5, 0, .BEHIND. ) ;
#158 = SECURITY_CLASSIFICATION ( '', '', #101 ) ;
#159 = APPROVAL_DATE_TIME ( #35, #12 ) ;
#160 = DIRECTION ( 'NONE',  ( 1.000000000000000000, 0.0000000000000000000, 0.0000000000000000000 ) ) ;
#161 = PRODUCT_RELATED_PRODUCT_CATEGORY ( 'detail', '', ( #49 ) ) ;
#162 = CARTESIAN_POINT ( 'NONE',  ( 12.50000000000000000, 1.530808498934191500E-015, -1.000000000000000000 ) ) ;
#163 = DIRECTION ( 'NONE',  ( -1.000000000000000000, 0.0000000000000000000, 0.0000000000000000000 ) ) ;
#164 = DIRECTION ( 'NONE',  ( 0.0000000000000000000, 0.0000000000000000000, 1.000000000000000000 ) ) ;
#165 = APPROVAL_ROLE ( '' ) ;
#166 = EDGE_LOOP ( 'NONE', ( #147, #89 ) ) ;
#167 = APPROVAL_STATUS ( 'not_yet_approved' ) ;
#168 = PERSON_AND_ORGANIZATION_ROLE ( 'creator' ) ;
#169 = VECTOR ( 'NONE', #31, 1000.000000000000000 ) ;
#170 = SHAPE_DEFINITION_REPRESENTATION ( #60, #93 ) ;
#171 = PERSON_AND_ORGANIZATION ( #144, #23 ) ;
#172 = ORIENTED_EDGE ( 'NONE', *, *, #102, .T. ) ;
#173 = DATE_AND_TIME ( #86, #82 ) ;
#174 = PRODUCT_DEFINITION_FORMATION_WITH_SPECIFIED_SOURCE ( 'ANY', '', #49, .NOT_KNOWN. ) ;
#175 = CARTESIAN_POINT ( 'NONE',  ( 0.0000000000000000000, 0.0000000000000000000, 1.000000000000000000 ) ) ;
ENDSEC;
END-ISO-10303-21;
