ISO-10303-21;
HEADER;
FILE_DESCRIPTION (( 'STEP AP203' ),
    '1' );
FILE_NAME ('Web Model 47682_15964.step',
    '2020-10-07T17:23:58',
    ( '' ),
    ( '' ),
    'SwSTEP 2.0',
    'SolidWorks 2018',
    '' );
FILE_SCHEMA (( 'CONFIG_CONTROL_DESIGN' ));
ENDSEC;

DATA;
#1 = CIRCLE ( 'NONE', #26, 6.250000000000000000 ) ;
#2 = EDGE_CURVE ( 'NONE', #8, #14, #1, .T. ) ;
#3 = EDGE_LOOP ( 'NONE', ( #170, #117, #148, #98 ) ) ;
#4 = ORGANIZATION ( 'UNSPECIFIED', 'UNSPECIFIED', '' ) ;
#5 = CALENDAR_DATE ( 2020, 7, 10 ) ;
#6 = DIRECTION ( 'NONE',  ( 1.000000000000000000, 0.0000000000000000000, 0.0000000000000000000 ) ) ;
#7 = EDGE_CURVE ( 'NONE', #161, #109, #81, .T. ) ;
#8 = VERTEX_POINT ( 'NONE', #111 ) ;
#9 = LINE ( 'NONE', #139, #167 ) ;
#10 = ADVANCED_FACE ( 'NONE', ( #145 ), #48, .T. ) ;
#11 = DIRECTION ( 'NONE',  ( 1.000000000000000000, 0.0000000000000000000, 0.0000000000000000000 ) ) ;
#12 = PERSON_AND_ORGANIZATION ( #168, #4 ) ;
#13 =( GEOMETRIC_REPRESENTATION_CONTEXT ( 3 ) GLOBAL_UNCERTAINTY_ASSIGNED_CONTEXT ( ( #175 ) ) GLOBAL_UNIT_ASSIGNED_CONTEXT ( ( #53, #114, #28 ) ) REPRESENTATION_CONTEXT ( 'NONE', 'WORKASPACE' ) );
#14 = VERTEX_POINT ( 'NONE', #112 ) ;
#15 = AXIS2_PLACEMENT_3D ( 'NONE', #130, #88, #11 ) ;
#16 = APPLICATION_PROTOCOL_DEFINITION ( 'international standard', 'config_control_design', 1994, #119 ) ;
#17 = DATE_TIME_ROLE ( 'classification_date' ) ;
#18 = APPROVAL_DATE_TIME ( #150, #127 ) ;
#19 = CC_DESIGN_APPROVAL ( #127, ( #136 ) ) ;
#20 = DATE_AND_TIME ( #164, #147 ) ;
#21 = PERSON_AND_ORGANIZATION ( #168, #4 ) ;
#22 = CC_DESIGN_PERSON_AND_ORGANIZATION_ASSIGNMENT ( #166, #118, ( #136 ) ) ;
#23 = CARTESIAN_POINT ( 'NONE',  ( -6.250000000000000000, 0.0000000000000000000, 1.000000000000000000 ) ) ;
#24 = CARTESIAN_POINT ( 'NONE',  ( 0.0000000000000000000, 0.0000000000000000000, 1.000000000000000000 ) ) ;
#25 = DIRECTION ( 'NONE',  ( -0.0000000000000000000, -0.0000000000000000000, -1.000000000000000000 ) ) ;
#26 = AXIS2_PLACEMENT_3D ( 'NONE', #154, #126, #6 ) ;
#27 = DIRECTION ( 'NONE',  ( -0.0000000000000000000, -0.0000000000000000000, -1.000000000000000000 ) ) ;
#28 =( NAMED_UNIT ( * ) SI_UNIT ( $, .STERADIAN. ) SOLID_ANGLE_UNIT ( ) );
#29 = ORIENTED_EDGE ( 'NONE', *, *, #171, .T. ) ;
#30 = LOCAL_TIME ( 13, 23, 58.00000000000000000, #87 ) ;
#31 = PERSON_AND_ORGANIZATION_ROLE ( 'design_owner' ) ;
#32 = CC_DESIGN_PERSON_AND_ORGANIZATION_ASSIGNMENT ( #59, #71, ( #73 ) ) ;
#33 = APPROVAL_PERSON_ORGANIZATION ( #21, #105, #56 ) ;
#34 = ORIENTED_EDGE ( 'NONE', *, *, #2, .F. ) ;
#35 = AXIS2_PLACEMENT_3D ( 'NONE', #24, #152, #110 ) ;
#36 = LOCAL_TIME ( 13, 23, 58.00000000000000000, #115 ) ;
#37 = DIRECTION ( 'NONE',  ( -1.000000000000000000, 0.0000000000000000000, 0.0000000000000000000 ) ) ;
#38 = DIRECTION ( 'NONE',  ( 0.0000000000000000000, 0.0000000000000000000, 1.000000000000000000 ) ) ;
#39 = DIRECTION ( 'NONE',  ( 1.000000000000000000, 0.0000000000000000000, 0.0000000000000000000 ) ) ;
#40 = PERSON_AND_ORGANIZATION ( #168, #4 ) ;
#41 = CC_DESIGN_PERSON_AND_ORGANIZATION_ASSIGNMENT ( #12, #58, ( #73 ) ) ;
#42 = AXIS2_PLACEMENT_3D ( 'NONE', #63, #100, #165 ) ;
#43 = APPROVAL_STATUS ( 'not_yet_approved' ) ;
#44 = APPLICATION_CONTEXT ( 'configuration controlled 3d designs of mechanical parts and assemblies' ) ;
#45 = DATE_AND_TIME ( #85, #30 ) ;
#46 = CLOSED_SHELL ( 'NONE', ( #68, #10, #131, #64 ) ) ;
#47 = EDGE_CURVE ( 'NONE', #161, #14, #149, .T. ) ;
#48 = CYLINDRICAL_SURFACE ( 'NONE', #55, 6.250000000000000000 ) ;
#49 = CALENDAR_DATE ( 2020, 7, 10 ) ;
#50 = DIRECTION ( 'NONE',  ( -1.000000000000000000, 0.0000000000000000000, 0.0000000000000000000 ) ) ;
#51 = CARTESIAN_POINT ( 'NONE',  ( 0.0000000000000000000, 0.0000000000000000000, 1.000000000000000000 ) ) ;
#52 = AXIS2_PLACEMENT_3D ( 'NONE', #86, #38, #39 ) ;
#53 =( LENGTH_UNIT ( ) NAMED_UNIT ( * ) SI_UNIT ( .MILLI., .METRE. ) );
#54 = CARTESIAN_POINT ( 'NONE',  ( -6.250000000000000000, 0.0000000000000000000, 1.000000000000000000 ) ) ;
#55 = AXIS2_PLACEMENT_3D ( 'NONE', #65, #25, #37 ) ;
#56 = APPROVAL_ROLE ( '' ) ;
#57 = APPROVAL_PERSON_ORGANIZATION ( #163, #127, #143 ) ;
#58 = PERSON_AND_ORGANIZATION_ROLE ( 'design_supplier' ) ;
#59 = PERSON_AND_ORGANIZATION ( #168, #4 ) ;
#60 = ORIENTED_EDGE ( 'NONE', *, *, #7, .T. ) ;
#61 = AXIS2_PLACEMENT_3D ( 'NONE', #51, #27, #50 ) ;
#62 = CC_DESIGN_APPROVAL ( #162, ( #73 ) ) ;
#63 = CARTESIAN_POINT ( 'NONE',  ( 0.0000000000000000000, 0.0000000000000000000, -1.000000000000000000 ) ) ;
#64 = ADVANCED_FACE ( 'NONE', ( #174 ), #128, .F. ) ;
#65 = CARTESIAN_POINT ( 'NONE',  ( 0.0000000000000000000, 0.0000000000000000000, 1.000000000000000000 ) ) ;
#66 = APPROVAL_PERSON_ORGANIZATION ( #116, #162, #134 ) ;
#67 = DIRECTION ( 'NONE',  ( -0.0000000000000000000, -0.0000000000000000000, -1.000000000000000000 ) ) ;
#68 = ADVANCED_FACE ( 'NONE', ( #138 ), #141, .T. ) ;
#69 = APPROVAL_DATE_TIME ( #78, #105 ) ;
#70 = SHAPE_DEFINITION_REPRESENTATION ( #159, #108 ) ;
#71 = PERSON_AND_ORGANIZATION_ROLE ( 'creator' ) ;
#72 = PERSON_AND_ORGANIZATION_ROLE ( 'classification_officer' ) ;
#73 = PRODUCT_DEFINITION_FORMATION_WITH_SPECIFIED_SOURCE ( 'ANY', '', #158, .NOT_KNOWN. ) ;
#74 = EDGE_CURVE ( 'NONE', #14, #8, #101, .T. ) ;
#75 = PLANE ( 'NONE',  #106 ) ;
#76 = ORIENTED_EDGE ( 'NONE', *, *, #47, .F. ) ;
#77 = CARTESIAN_POINT ( 'NONE',  ( 0.0000000000000000000, 0.0000000000000000000, 1.000000000000000000 ) ) ;
#78 = DATE_AND_TIME ( #5, #83 ) ;
#79 = ORIENTED_EDGE ( 'NONE', *, *, #74, .F. ) ;
#80 = SECURITY_CLASSIFICATION ( '', '', #146 ) ;
#81 = CIRCLE ( 'NONE', #35, 6.250000000000000000 ) ;
#82 = COORDINATED_UNIVERSAL_TIME_OFFSET ( 5, 0, .BEHIND. ) ;
#83 = LOCAL_TIME ( 13, 23, 58.00000000000000000, #93 ) ;
#84 = FACE_OUTER_BOUND ( 'NONE', #124, .T. ) ;
#85 = CALENDAR_DATE ( 2020, 7, 10 ) ;
#86 = CARTESIAN_POINT ( 'NONE',  ( 0.0000000000000000000, 0.0000000000000000000, -1.000000000000000000 ) ) ;
#87 = COORDINATED_UNIVERSAL_TIME_OFFSET ( 5, 0, .BEHIND. ) ;
#88 = DIRECTION ( 'NONE',  ( 0.0000000000000000000, 0.0000000000000000000, 1.000000000000000000 ) ) ;
#89 = EDGE_CURVE ( 'NONE', #109, #161, #125, .T. ) ;
#90 = COORDINATED_UNIVERSAL_TIME_OFFSET ( 5, 0, .BEHIND. ) ;
#91 = CC_DESIGN_APPROVAL ( #105, ( #80 ) ) ;
#92 = DIRECTION ( 'NONE',  ( 0.0000000000000000000, 0.0000000000000000000, 1.000000000000000000 ) ) ;
#93 = COORDINATED_UNIVERSAL_TIME_OFFSET ( 5, 0, .BEHIND. ) ;
#94 = DATE_TIME_ROLE ( 'creation_date' ) ;
#95 = MECHANICAL_CONTEXT ( 'NONE', #44, 'mechanical' ) ;
#96 = DATE_AND_TIME ( #49, #107 ) ;
#97 = MANIFOLD_SOLID_BREP ( 'Boss-Extrude1', #46 ) ;
#98 = ORIENTED_EDGE ( 'NONE', *, *, #74, .T. ) ;
#99 = ORIENTED_EDGE ( 'NONE', *, *, #2, .T. ) ;
#100 = DIRECTION ( 'NONE',  ( 0.0000000000000000000, 0.0000000000000000000, 1.000000000000000000 ) ) ;
#101 = CIRCLE ( 'NONE', #52, 6.250000000000000000 ) ;
#102 = DIRECTION ( 'NONE',  ( 1.000000000000000000, 0.0000000000000000000, 0.0000000000000000000 ) ) ;
#103 = APPLICATION_PROTOCOL_DEFINITION ( 'international standard', 'config_control_design', 1994, #44 ) ;
#104 = PRODUCT_RELATED_PRODUCT_CATEGORY ( 'detail', '', ( #158 ) ) ;
#105 = APPROVAL ( #43, 'UNSPECIFIED' ) ;
#106 = AXIS2_PLACEMENT_3D ( 'NONE', #77, #140, #157 ) ;
#107 = LOCAL_TIME ( 13, 23, 58.00000000000000000, #90 ) ;
#108 = ADVANCED_BREP_SHAPE_REPRESENTATION ( 'Web Model 47682_15964', ( #97, #135 ), #13 ) ;
#109 = VERTEX_POINT ( 'NONE', #156 ) ;
#110 = DIRECTION ( 'NONE',  ( 1.000000000000000000, 0.0000000000000000000, 0.0000000000000000000 ) ) ;
#111 = CARTESIAN_POINT ( 'NONE',  ( 6.250000000000000000, 7.654042494670957606E-16, -1.000000000000000000 ) ) ;
#112 = CARTESIAN_POINT ( 'NONE',  ( -6.250000000000000000, 0.0000000000000000000, -1.000000000000000000 ) ) ;
#113 = VECTOR ( 'NONE', #123, 1000.000000000000000 ) ;
#114 =( NAMED_UNIT ( * ) PLANE_ANGLE_UNIT ( ) SI_UNIT ( $, .RADIAN. ) );
#115 = COORDINATED_UNIVERSAL_TIME_OFFSET ( 5, 0, .BEHIND. ) ;
#116 = PERSON_AND_ORGANIZATION ( #168, #4 ) ;
#117 = ORIENTED_EDGE ( 'NONE', *, *, #7, .F. ) ;
#118 = PERSON_AND_ORGANIZATION_ROLE ( 'creator' ) ;
#119 = APPLICATION_CONTEXT ( 'configuration controlled 3d designs of mechanical parts and assemblies' ) ;
#120 = EDGE_LOOP ( 'NONE', ( #137, #29, #99, #76 ) ) ;
#121 = DESIGN_CONTEXT ( 'detailed design', #119, 'design' ) ;
#122 = ORIENTED_EDGE ( 'NONE', *, *, #89, .T. ) ;
#123 = DIRECTION ( 'NONE',  ( -0.0000000000000000000, -0.0000000000000000000, -1.000000000000000000 ) ) ;
#124 = EDGE_LOOP ( 'NONE', ( #60, #122 ) ) ;
#125 = CIRCLE ( 'NONE', #15, 6.250000000000000000 ) ;
#126 = DIRECTION ( 'NONE',  ( 0.0000000000000000000, 0.0000000000000000000, 1.000000000000000000 ) ) ;
#127 = APPROVAL ( #172, 'UNSPECIFIED' ) ;
#128 = PLANE ( 'NONE',  #42 ) ;
#129 = APPROVAL_DATE_TIME ( #45, #162 ) ;
#130 = CARTESIAN_POINT ( 'NONE',  ( 0.0000000000000000000, 0.0000000000000000000, 1.000000000000000000 ) ) ;
#131 = ADVANCED_FACE ( 'NONE', ( #84 ), #75, .T. ) ;
#132 = CALENDAR_DATE ( 2020, 7, 10 ) ;
#133 = APPROVAL_STATUS ( 'not_yet_approved' ) ;
#134 = APPROVAL_ROLE ( '' ) ;
#135 = AXIS2_PLACEMENT_3D ( 'NONE', #160, #92, #102 ) ;
#136 = PRODUCT_DEFINITION ( 'UNKNOWN', '', #73, #121 ) ;
#137 = ORIENTED_EDGE ( 'NONE', *, *, #89, .F. ) ;
#138 = FACE_OUTER_BOUND ( 'NONE', #120, .T. ) ;
#139 = CARTESIAN_POINT ( 'NONE',  ( 6.250000000000000000, 7.654042494670957606E-16, 1.000000000000000000 ) ) ;
#140 = DIRECTION ( 'NONE',  ( 0.0000000000000000000, 0.0000000000000000000, 1.000000000000000000 ) ) ;
#141 = CYLINDRICAL_SURFACE ( 'NONE', #61, 6.250000000000000000 ) ;
#142 = CC_DESIGN_PERSON_AND_ORGANIZATION_ASSIGNMENT ( #153, #31, ( #158 ) ) ;
#143 = APPROVAL_ROLE ( '' ) ;
#144 = CC_DESIGN_SECURITY_CLASSIFICATION ( #80, ( #73 ) ) ;
#145 = FACE_OUTER_BOUND ( 'NONE', #3, .T. ) ;
#146 = SECURITY_CLASSIFICATION_LEVEL ( 'unclassified' ) ;
#147 = LOCAL_TIME ( 13, 23, 58.00000000000000000, #82 ) ;
#148 = ORIENTED_EDGE ( 'NONE', *, *, #47, .T. ) ;
#149 = LINE ( 'NONE', #23, #113 ) ;
#150 = DATE_AND_TIME ( #132, #36 ) ;
#151 = EDGE_LOOP ( 'NONE', ( #79, #34 ) ) ;
#152 = DIRECTION ( 'NONE',  ( 0.0000000000000000000, 0.0000000000000000000, 1.000000000000000000 ) ) ;
#153 = PERSON_AND_ORGANIZATION ( #168, #4 ) ;
#154 = CARTESIAN_POINT ( 'NONE',  ( 0.0000000000000000000, 0.0000000000000000000, -1.000000000000000000 ) ) ;
#155 = CC_DESIGN_DATE_AND_TIME_ASSIGNMENT ( #20, #94, ( #136 ) ) ;
#156 = CARTESIAN_POINT ( 'NONE',  ( 6.250000000000000000, 7.654042494670957606E-16, 1.000000000000000000 ) ) ;
#157 = DIRECTION ( 'NONE',  ( 1.000000000000000000, 0.0000000000000000000, -0.0000000000000000000 ) ) ;
#158 = PRODUCT ( 'Web Model 47682_15964', 'Web Model 47682_15964', '', ( #95 ) ) ;
#159 = PRODUCT_DEFINITION_SHAPE ( 'NONE', 'NONE',  #136 ) ;
#160 = CARTESIAN_POINT ( 'NONE',  ( 0.0000000000000000000, 0.0000000000000000000, 0.0000000000000000000 ) ) ;
#161 = VERTEX_POINT ( 'NONE', #54 ) ;
#162 = APPROVAL ( #133, 'UNSPECIFIED' ) ;
#163 = PERSON_AND_ORGANIZATION ( #168, #4 ) ;
#164 = CALENDAR_DATE ( 2020, 7, 10 ) ;
#165 = DIRECTION ( 'NONE',  ( 1.000000000000000000, 0.0000000000000000000, -0.0000000000000000000 ) ) ;
#166 = PERSON_AND_ORGANIZATION ( #168, #4 ) ;
#167 = VECTOR ( 'NONE', #67, 1000.000000000000000 ) ;
#168 = PERSON ( 'UNSPECIFIED', 'UNSPECIFIED', 'UNSPECIFIED', ('UNSPECIFIED'), ('UNSPECIFIED'), ('UNSPECIFIED') ) ;
#169 = CC_DESIGN_PERSON_AND_ORGANIZATION_ASSIGNMENT ( #40, #72, ( #80 ) ) ;
#170 = ORIENTED_EDGE ( 'NONE', *, *, #171, .F. ) ;
#171 = EDGE_CURVE ( 'NONE', #109, #8, #9, .T. ) ;
#172 = APPROVAL_STATUS ( 'not_yet_approved' ) ;
#173 = CC_DESIGN_DATE_AND_TIME_ASSIGNMENT ( #96, #17, ( #80 ) ) ;
#174 = FACE_OUTER_BOUND ( 'NONE', #151, .T. ) ;
#175 = UNCERTAINTY_MEASURE_WITH_UNIT (LENGTH_MEASURE( 1.000000000000000082E-05 ), #53, 'distance_accuracy_value', 'NONE');
ENDSEC;
END-ISO-10303-21;
