ISO-10303-21;
HEADER;
FILE_DESCRIPTION (( 'STEP AP203' ),
    '1' );
FILE_NAME ('Web Model 37689_39004.step',
    '2018-10-18T19:44:12',
    ( '' ),
    ( '' ),
    'SwSTEP 2.0',
    'SolidWorks 2016',
    '' );
FILE_SCHEMA (( 'CONFIG_CONTROL_DESIGN' ));
ENDSEC;

DATA;
#1 = CC_DESIGN_SECURITY_CLASSIFICATION ( #139, ( #27 ) ) ;
#2 = DIRECTION ( 'NONE',  ( 0.0000000000000000000, 0.0000000000000000000, 1.000000000000000000 ) ) ;
#3 = LINE ( 'NONE', #136, #97 ) ;
#4 = PRODUCT_RELATED_PRODUCT_CATEGORY ( 'detail', '', ( #48 ) ) ;
#5 = LOCAL_TIME ( 15, 44, 12.00000000000000000, #36 ) ;
#6 = APPROVAL_DATE_TIME ( #173, #122 ) ;
#7 =( GEOMETRIC_REPRESENTATION_CONTEXT ( 3 ) GLOBAL_UNCERTAINTY_ASSIGNED_CONTEXT ( ( #60 ) ) GLOBAL_UNIT_ASSIGNED_CONTEXT ( ( #80, #34, #50 ) ) REPRESENTATION_CONTEXT ( 'NONE', 'WORKASPACE' ) );
#8 = ORIENTED_EDGE ( 'NONE', *, *, #131, .T. ) ;
#9 = CALENDAR_DATE ( 2018, 18, 10 ) ;
#10 = DIRECTION ( 'NONE',  ( 1.000000000000000000, 0.0000000000000000000, -0.0000000000000000000 ) ) ;
#11 = CARTESIAN_POINT ( 'NONE',  ( 12.69999999999999900, 1.555301434917138400E-015, -3.174999999999999800 ) ) ;
#12 = APPROVAL_PERSON_ORGANIZATION ( #46, #23, #61 ) ;
#13 = ADVANCED_FACE ( 'NONE', ( #20 ), #86, .T. ) ;
#14 = APPLICATION_CONTEXT ( 'configuration controlled 3d designs of mechanical parts and assemblies' ) ;
#15 = DIRECTION ( 'NONE',  ( -1.000000000000000000, 0.0000000000000000000, 0.0000000000000000000 ) ) ;
#16 = VECTOR ( 'NONE', #41, 1000.000000000000000 ) ;
#17 = CC_DESIGN_APPROVAL ( #162, ( #139 ) ) ;
#18 = APPLICATION_PROTOCOL_DEFINITION ( 'international standard', 'config_control_design', 1994, #14 ) ;
#19 = APPROVAL_PERSON_ORGANIZATION ( #65, #162, #159 ) ;
#20 = FACE_OUTER_BOUND ( 'NONE', #66, .T. ) ;
#21 = FACE_OUTER_BOUND ( 'NONE', #83, .T. ) ;
#22 = DATE_AND_TIME ( #108, #38 ) ;
#23 = APPROVAL ( #151, 'UNSPECIFIED' ) ;
#24 = DATE_AND_TIME ( #9, #5 ) ;
#25 = ORIENTED_EDGE ( 'NONE', *, *, #131, .F. ) ;
#26 = CARTESIAN_POINT ( 'NONE',  ( 0.0000000000000000000, 0.0000000000000000000, -3.174999999999999800 ) ) ;
#27 = PRODUCT_DEFINITION_FORMATION_WITH_SPECIFIED_SOURCE ( 'ANY', '', #48, .NOT_KNOWN. ) ;
#28 = CARTESIAN_POINT ( 'NONE',  ( 0.0000000000000000000, 0.0000000000000000000, 3.174999999999999800 ) ) ;
#29 = CLOSED_SHELL ( 'NONE', ( #155, #42, #13, #44 ) ) ;
#30 = CC_DESIGN_PERSON_AND_ORGANIZATION_ASSIGNMENT ( #54, #107, ( #139 ) ) ;
#31 = PERSON_AND_ORGANIZATION_ROLE ( 'design_owner' ) ;
#32 = CALENDAR_DATE ( 2018, 18, 10 ) ;
#33 = CARTESIAN_POINT ( 'NONE',  ( 0.0000000000000000000, 0.0000000000000000000, 0.0000000000000000000 ) ) ;
#34 =( NAMED_UNIT ( * ) PLANE_ANGLE_UNIT ( ) SI_UNIT ( $, .RADIAN. ) );
#35 = DATE_TIME_ROLE ( 'classification_date' ) ;
#36 = COORDINATED_UNIVERSAL_TIME_OFFSET ( 5, 0, .BEHIND. ) ;
#37 = AXIS2_PLACEMENT_3D ( 'NONE', #135, #71, #40 ) ;
#38 = LOCAL_TIME ( 15, 44, 12.00000000000000000, #55 ) ;
#39 = APPROVAL_PERSON_ORGANIZATION ( #129, #122, #47 ) ;
#40 = DIRECTION ( 'NONE',  ( 1.000000000000000000, 0.0000000000000000000, 0.0000000000000000000 ) ) ;
#41 = DIRECTION ( 'NONE',  ( -0.0000000000000000000, -0.0000000000000000000, -1.000000000000000000 ) ) ;
#42 = ADVANCED_FACE ( 'NONE', ( #170 ), #77, .T. ) ;
#43 = CARTESIAN_POINT ( 'NONE',  ( -12.69999999999999900, 0.0000000000000000000, 3.174999999999999800 ) ) ;
#44 = ADVANCED_FACE ( 'NONE', ( #69 ), #157, .F. ) ;
#45 = APPLICATION_PROTOCOL_DEFINITION ( 'international standard', 'config_control_design', 1994, #76 ) ;
#46 = PERSON_AND_ORGANIZATION ( #79, #158 ) ;
#47 = APPROVAL_ROLE ( '' ) ;
#48 = PRODUCT ( 'Web Model 37689_39004', 'Web Model 37689_39004', '', ( #123 ) ) ;
#49 = EDGE_CURVE ( 'NONE', #115, #174, #94, .T. ) ;
#50 =( NAMED_UNIT ( * ) SI_UNIT ( $, .STERADIAN. ) SOLID_ANGLE_UNIT ( ) );
#51 = PERSON_AND_ORGANIZATION ( #79, #158 ) ;
#52 = PERSON_AND_ORGANIZATION_ROLE ( 'creator' ) ;
#53 = CIRCLE ( 'NONE', #89, 12.69999999999999900 ) ;
#54 = PERSON_AND_ORGANIZATION ( #79, #158 ) ;
#55 = COORDINATED_UNIVERSAL_TIME_OFFSET ( 5, 0, .BEHIND. ) ;
#56 = CALENDAR_DATE ( 2018, 18, 10 ) ;
#57 = CC_DESIGN_APPROVAL ( #122, ( #99 ) ) ;
#58 = ORIENTED_EDGE ( 'NONE', *, *, #147, .T. ) ;
#59 = EDGE_CURVE ( 'NONE', #150, #112, #100, .T. ) ;
#60 = UNCERTAINTY_MEASURE_WITH_UNIT (LENGTH_MEASURE( 1.000000000000000100E-005 ), #80, 'distance_accuracy_value', 'NONE');
#61 = APPROVAL_ROLE ( '' ) ;
#62 = PRODUCT_DEFINITION_SHAPE ( 'NONE', 'NONE',  #99 ) ;
#63 = APPROVAL_STATUS ( 'not_yet_approved' ) ;
#64 = PERSON_AND_ORGANIZATION_ROLE ( 'creator' ) ;
#65 = PERSON_AND_ORGANIZATION ( #79, #158 ) ;
#66 = EDGE_LOOP ( 'NONE', ( #171, #74 ) ) ;
#67 = DATE_AND_TIME ( #105, #82 ) ;
#68 = ORIENTED_EDGE ( 'NONE', *, *, #59, .F. ) ;
#69 = FACE_OUTER_BOUND ( 'NONE', #113, .T. ) ;
#70 = ORIENTED_EDGE ( 'NONE', *, *, #164, .F. ) ;
#71 = DIRECTION ( 'NONE',  ( 0.0000000000000000000, 0.0000000000000000000, 1.000000000000000000 ) ) ;
#72 = DIRECTION ( 'NONE',  ( 0.0000000000000000000, 0.0000000000000000000, 1.000000000000000000 ) ) ;
#73 = DIRECTION ( 'NONE',  ( 1.000000000000000000, 0.0000000000000000000, -0.0000000000000000000 ) ) ;
#74 = ORIENTED_EDGE ( 'NONE', *, *, #59, .T. ) ;
#75 = AXIS2_PLACEMENT_3D ( 'NONE', #137, #96, #15 ) ;
#76 = APPLICATION_CONTEXT ( 'configuration controlled 3d designs of mechanical parts and assemblies' ) ;
#77 = CYLINDRICAL_SURFACE ( 'NONE', #154, 12.69999999999999900 ) ;
#78 = DIRECTION ( 'NONE',  ( 0.0000000000000000000, 0.0000000000000000000, 1.000000000000000000 ) ) ;
#79 = PERSON ( 'UNSPECIFIED', 'UNSPECIFIED', 'UNSPECIFIED', ('UNSPECIFIED'), ('UNSPECIFIED'), ('UNSPECIFIED') ) ;
#80 =( LENGTH_UNIT ( ) NAMED_UNIT ( * ) SI_UNIT ( .MILLI., .METRE. ) );
#81 = CC_DESIGN_PERSON_AND_ORGANIZATION_ASSIGNMENT ( #88, #52, ( #99 ) ) ;
#82 = LOCAL_TIME ( 15, 44, 12.00000000000000000, #117 ) ;
#83 = EDGE_LOOP ( 'NONE', ( #68, #58, #127, #25 ) ) ;
#84 = AXIS2_PLACEMENT_3D ( 'NONE', #118, #2, #10 ) ;
#85 = ORIENTED_EDGE ( 'NONE', *, *, #164, .T. ) ;
#86 = PLANE ( 'NONE',  #84 ) ;
#87 = DIRECTION ( 'NONE',  ( -0.0000000000000000000, -0.0000000000000000000, -1.000000000000000000 ) ) ;
#88 = PERSON_AND_ORGANIZATION ( #79, #158 ) ;
#89 = AXIS2_PLACEMENT_3D ( 'NONE', #148, #138, #104 ) ;
#90 = DIRECTION ( 'NONE',  ( 1.000000000000000000, 0.0000000000000000000, 0.0000000000000000000 ) ) ;
#91 = CARTESIAN_POINT ( 'NONE',  ( -12.69999999999999900, 0.0000000000000000000, 3.174999999999999800 ) ) ;
#92 = DIRECTION ( 'NONE',  ( -1.000000000000000000, 0.0000000000000000000, 0.0000000000000000000 ) ) ;
#93 = PERSON_AND_ORGANIZATION_ROLE ( 'design_supplier' ) ;
#94 = CIRCLE ( 'NONE', #37, 12.69999999999999900 ) ;
#95 = AXIS2_PLACEMENT_3D ( 'NONE', #26, #102, #73 ) ;
#96 = DIRECTION ( 'NONE',  ( -0.0000000000000000000, -0.0000000000000000000, -1.000000000000000000 ) ) ;
#97 = VECTOR ( 'NONE', #87, 1000.000000000000000 ) ;
#98 = CC_DESIGN_PERSON_AND_ORGANIZATION_ASSIGNMENT ( #165, #93, ( #27 ) ) ;
#99 = PRODUCT_DEFINITION ( 'UNKNOWN', '', #27, #121 ) ;
#100 = CIRCLE ( 'NONE', #128, 12.69999999999999900 ) ;
#101 = DIRECTION ( 'NONE',  ( 0.0000000000000000000, 0.0000000000000000000, 1.000000000000000000 ) ) ;
#102 = DIRECTION ( 'NONE',  ( 0.0000000000000000000, 0.0000000000000000000, 1.000000000000000000 ) ) ;
#103 = CC_DESIGN_PERSON_AND_ORGANIZATION_ASSIGNMENT ( #111, #31, ( #48 ) ) ;
#104 = DIRECTION ( 'NONE',  ( 1.000000000000000000, 0.0000000000000000000, 0.0000000000000000000 ) ) ;
#105 = CALENDAR_DATE ( 2018, 18, 10 ) ;
#106 = SECURITY_CLASSIFICATION_LEVEL ( 'unclassified' ) ;
#107 = PERSON_AND_ORGANIZATION_ROLE ( 'classification_officer' ) ;
#108 = CALENDAR_DATE ( 2018, 18, 10 ) ;
#109 = ORIENTED_EDGE ( 'NONE', *, *, #143, .F. ) ;
#110 = CC_DESIGN_APPROVAL ( #23, ( #27 ) ) ;
#111 = PERSON_AND_ORGANIZATION ( #79, #158 ) ;
#112 = VERTEX_POINT ( 'NONE', #43 ) ;
#113 = EDGE_LOOP ( 'NONE', ( #70, #119 ) ) ;
#114 = CC_DESIGN_DATE_AND_TIME_ASSIGNMENT ( #134, #168, ( #99 ) ) ;
#115 = VERTEX_POINT ( 'NONE', #11 ) ;
#116 = CARTESIAN_POINT ( 'NONE',  ( 0.0000000000000000000, 0.0000000000000000000, 3.174999999999999800 ) ) ;
#117 = COORDINATED_UNIVERSAL_TIME_OFFSET ( 5, 0, .BEHIND. ) ;
#118 = CARTESIAN_POINT ( 'NONE',  ( 0.0000000000000000000, 0.0000000000000000000, 3.174999999999999800 ) ) ;
#119 = ORIENTED_EDGE ( 'NONE', *, *, #49, .F. ) ;
#120 = MANIFOLD_SOLID_BREP ( 'Boss-Extrude1', #29 ) ;
#121 = DESIGN_CONTEXT ( 'detailed design', #14, 'design' ) ;
#122 = APPROVAL ( #125, 'UNSPECIFIED' ) ;
#123 = MECHANICAL_CONTEXT ( 'NONE', #76, 'mechanical' ) ;
#124 = CARTESIAN_POINT ( 'NONE',  ( -12.69999999999999900, 0.0000000000000000000, -3.174999999999999800 ) ) ;
#125 = APPROVAL_STATUS ( 'not_yet_approved' ) ;
#126 = ORIENTED_EDGE ( 'NONE', *, *, #147, .F. ) ;
#127 = ORIENTED_EDGE ( 'NONE', *, *, #49, .T. ) ;
#128 = AXIS2_PLACEMENT_3D ( 'NONE', #145, #72, #90 ) ;
#129 = PERSON_AND_ORGANIZATION ( #79, #158 ) ;
#130 = EDGE_LOOP ( 'NONE', ( #126, #109, #8, #85 ) ) ;
#131 = EDGE_CURVE ( 'NONE', #112, #174, #149, .T. ) ;
#132 = APPROVAL_DATE_TIME ( #67, #23 ) ;
#133 = CC_DESIGN_PERSON_AND_ORGANIZATION_ASSIGNMENT ( #51, #64, ( #27 ) ) ;
#134 = DATE_AND_TIME ( #56, #142 ) ;
#135 = CARTESIAN_POINT ( 'NONE',  ( 0.0000000000000000000, 0.0000000000000000000, -3.174999999999999800 ) ) ;
#136 = CARTESIAN_POINT ( 'NONE',  ( 12.69999999999999900, 1.555301434917138400E-015, 3.174999999999999800 ) ) ;
#137 = CARTESIAN_POINT ( 'NONE',  ( 0.0000000000000000000, 0.0000000000000000000, 3.174999999999999800 ) ) ;
#138 = DIRECTION ( 'NONE',  ( 0.0000000000000000000, 0.0000000000000000000, 1.000000000000000000 ) ) ;
#139 = SECURITY_CLASSIFICATION ( '', '', #106 ) ;
#140 = COORDINATED_UNIVERSAL_TIME_OFFSET ( 5, 0, .BEHIND. ) ;
#141 = CC_DESIGN_DATE_AND_TIME_ASSIGNMENT ( #24, #35, ( #139 ) ) ;
#142 = LOCAL_TIME ( 15, 44, 12.00000000000000000, #152 ) ;
#143 = EDGE_CURVE ( 'NONE', #112, #150, #153, .T. ) ;
#144 = DIRECTION ( 'NONE',  ( 1.000000000000000000, 0.0000000000000000000, 0.0000000000000000000 ) ) ;
#145 = CARTESIAN_POINT ( 'NONE',  ( 0.0000000000000000000, 0.0000000000000000000, 3.174999999999999800 ) ) ;
#146 = APPROVAL_DATE_TIME ( #22, #162 ) ;
#147 = EDGE_CURVE ( 'NONE', #150, #115, #3, .T. ) ;
#148 = CARTESIAN_POINT ( 'NONE',  ( 0.0000000000000000000, 0.0000000000000000000, -3.174999999999999800 ) ) ;
#149 = LINE ( 'NONE', #91, #16 ) ;
#150 = VERTEX_POINT ( 'NONE', #166 ) ;
#151 = APPROVAL_STATUS ( 'not_yet_approved' ) ;
#152 = COORDINATED_UNIVERSAL_TIME_OFFSET ( 5, 0, .BEHIND. ) ;
#153 = CIRCLE ( 'NONE', #172, 12.69999999999999900 ) ;
#154 = AXIS2_PLACEMENT_3D ( 'NONE', #28, #167, #92 ) ;
#155 = ADVANCED_FACE ( 'NONE', ( #21 ), #169, .T. ) ;
#156 = LOCAL_TIME ( 15, 44, 12.00000000000000000, #140 ) ;
#157 = PLANE ( 'NONE',  #95 ) ;
#158 = ORGANIZATION ( 'UNSPECIFIED', 'UNSPECIFIED', '' ) ;
#159 = APPROVAL_ROLE ( '' ) ;
#160 = DIRECTION ( 'NONE',  ( 1.000000000000000000, 0.0000000000000000000, 0.0000000000000000000 ) ) ;
#161 = AXIS2_PLACEMENT_3D ( 'NONE', #33, #78, #160 ) ;
#162 = APPROVAL ( #63, 'UNSPECIFIED' ) ;
#163 = SHAPE_DEFINITION_REPRESENTATION ( #62, #175 ) ;
#164 = EDGE_CURVE ( 'NONE', #174, #115, #53, .T. ) ;
#165 = PERSON_AND_ORGANIZATION ( #79, #158 ) ;
#166 = CARTESIAN_POINT ( 'NONE',  ( 12.69999999999999900, 1.555301434917138400E-015, 3.174999999999999800 ) ) ;
#167 = DIRECTION ( 'NONE',  ( -0.0000000000000000000, -0.0000000000000000000, -1.000000000000000000 ) ) ;
#168 = DATE_TIME_ROLE ( 'creation_date' ) ;
#169 = CYLINDRICAL_SURFACE ( 'NONE', #75, 12.69999999999999900 ) ;
#170 = FACE_OUTER_BOUND ( 'NONE', #130, .T. ) ;
#171 = ORIENTED_EDGE ( 'NONE', *, *, #143, .T. ) ;
#172 = AXIS2_PLACEMENT_3D ( 'NONE', #116, #101, #144 ) ;
#173 = DATE_AND_TIME ( #32, #156 ) ;
#174 = VERTEX_POINT ( 'NONE', #124 ) ;
#175 = ADVANCED_BREP_SHAPE_REPRESENTATION ( 'Web Model 37689_39004', ( #120, #161 ), #7 ) ;
ENDSEC;
END-ISO-10303-21;
