ISO-10303-21;
HEADER;
FILE_DESCRIPTION (( 'STEP AP203' ),
    '1' );
FILE_NAME ('Web Model 68490.STEP',
    '2017-01-31T20:05:07',
    ( '' ),
    ( '' ),
    'SwSTEP 2.0',
    'SolidWorks 2016',
    '' );
FILE_SCHEMA (( 'CONFIG_CONTROL_DESIGN' ));
ENDSEC;

DATA;
#1 = PERSON_AND_ORGANIZATION ( #42, #40 ) ;
#2 = CC_DESIGN_DATE_AND_TIME_ASSIGNMENT ( #123, #162, ( #70 ) ) ;
#3 = CARTESIAN_POINT ( 'NONE',  ( 5.000000000000000000, 6.123233995736766300E-016, 1.500000000000000000 ) ) ;
#4 = CC_DESIGN_PERSON_AND_ORGANIZATION_ASSIGNMENT ( #151, #108, ( #82 ) ) ;
#5 = LOCAL_TIME ( 15, 5, 7.000000000000000000, #117 ) ;
#6 = ORIENTED_EDGE ( 'NONE', *, *, #31, .F. ) ;
#7 = CARTESIAN_POINT ( 'NONE',  ( -5.000000000000000000, 0.0000000000000000000, 1.500000000000000000 ) ) ;
#8 = PRODUCT_DEFINITION ( 'UNKNOWN', '', #82, #102 ) ;
#9 = DATE_AND_TIME ( #112, #165 ) ;
#10 = CIRCLE ( 'NONE', #92, 5.000000000000000000 ) ;
#11 = ORIENTED_EDGE ( 'NONE', *, *, #115, .T. ) ;
#12 = AXIS2_PLACEMENT_3D ( 'NONE', #130, #17, #126 ) ;
#13 = LOCAL_TIME ( 15, 5, 7.000000000000000000, #79 ) ;
#14 = EDGE_LOOP ( 'NONE', ( #101, #164 ) ) ;
#15 = EDGE_CURVE ( 'NONE', #45, #64, #88, .T. ) ;
#16 = CC_DESIGN_APPROVAL ( #30, ( #8 ) ) ;
#17 = DIRECTION ( 'NONE',  ( 0.0000000000000000000, 0.0000000000000000000, 1.000000000000000000 ) ) ;
#18 = DATE_AND_TIME ( #163, #142 ) ;
#19 = CARTESIAN_POINT ( 'NONE',  ( 5.000000000000000000, 6.123233995736766300E-016, 1.500000000000000000 ) ) ;
#20 = CLOSED_SHELL ( 'NONE', ( #86, #87, #139, #140 ) ) ;
#21 = DIRECTION ( 'NONE',  ( 1.000000000000000000, 0.0000000000000000000, -0.0000000000000000000 ) ) ;
#22 = PERSON_AND_ORGANIZATION_ROLE ( 'design_supplier' ) ;
#23 = CC_DESIGN_PERSON_AND_ORGANIZATION_ASSIGNMENT ( #156, #65, ( #70 ) ) ;
#24 = FACE_OUTER_BOUND ( 'NONE', #14, .T. ) ;
#25 =( GEOMETRIC_REPRESENTATION_CONTEXT ( 3 ) GLOBAL_UNCERTAINTY_ASSIGNED_CONTEXT ( ( #141 ) ) GLOBAL_UNIT_ASSIGNED_CONTEXT ( ( #119, #105, #175 ) ) REPRESENTATION_CONTEXT ( 'NONE', 'WORKASPACE' ) );
#26 = PERSON_AND_ORGANIZATION_ROLE ( 'creator' ) ;
#27 = CC_DESIGN_PERSON_AND_ORGANIZATION_ASSIGNMENT ( #106, #22, ( #82 ) ) ;
#28 = FACE_OUTER_BOUND ( 'NONE', #32, .T. ) ;
#29 = PRODUCT ( 'Web Model 68490', 'Web Model 68490', '', ( #161 ) ) ;
#30 = APPROVAL ( #171, 'UNSPECIFIED' ) ;
#31 = EDGE_CURVE ( 'NONE', #64, #45, #125, .T. ) ;
#32 = EDGE_LOOP ( 'NONE', ( #59, #54, #107, #90 ) ) ;
#33 = DIRECTION ( 'NONE',  ( -1.000000000000000000, 0.0000000000000000000, 0.0000000000000000000 ) ) ;
#34 = AXIS2_PLACEMENT_3D ( 'NONE', #146, #60, #158 ) ;
#35 = CARTESIAN_POINT ( 'NONE',  ( 0.0000000000000000000, 0.0000000000000000000, 1.500000000000000000 ) ) ;
#36 = DIRECTION ( 'NONE',  ( 0.0000000000000000000, 0.0000000000000000000, 1.000000000000000000 ) ) ;
#37 = DIRECTION ( 'NONE',  ( 1.000000000000000000, 0.0000000000000000000, 0.0000000000000000000 ) ) ;
#38 = APPROVAL_ROLE ( '' ) ;
#39 = APPROVAL_DATE_TIME ( #41, #129 ) ;
#40 = ORGANIZATION ( 'UNSPECIFIED', 'UNSPECIFIED', '' ) ;
#41 = DATE_AND_TIME ( #76, #13 ) ;
#42 = PERSON ( 'UNSPECIFIED', 'UNSPECIFIED', 'UNSPECIFIED', ('UNSPECIFIED'), ('UNSPECIFIED'), ('UNSPECIFIED') ) ;
#43 = DATE_AND_TIME ( #114, #63 ) ;
#44 = ADVANCED_BREP_SHAPE_REPRESENTATION ( 'Web Model 68490', ( #52, #61 ), #25 ) ;
#45 = VERTEX_POINT ( 'NONE', #7 ) ;
#46 = CC_DESIGN_PERSON_AND_ORGANIZATION_ASSIGNMENT ( #138, #26, ( #8 ) ) ;
#47 = CYLINDRICAL_SURFACE ( 'NONE', #174, 5.000000000000000000 ) ;
#48 = DIRECTION ( 'NONE',  ( 0.0000000000000000000, 0.0000000000000000000, 1.000000000000000000 ) ) ;
#49 = PLANE ( 'NONE',  #110 ) ;
#50 = APPLICATION_CONTEXT ( 'configuration controlled 3d designs of mechanical parts and assemblies' ) ;
#51 = CARTESIAN_POINT ( 'NONE',  ( 0.0000000000000000000, 0.0000000000000000000, 0.0000000000000000000 ) ) ;
#52 = MANIFOLD_SOLID_BREP ( 'Extrude1', #20 ) ;
#53 = PERSON_AND_ORGANIZATION ( #42, #40 ) ;
#54 = ORIENTED_EDGE ( 'NONE', *, *, #15, .F. ) ;
#55 = VERTEX_POINT ( 'NONE', #169 ) ;
#56 = VERTEX_POINT ( 'NONE', #157 ) ;
#57 = LINE ( 'NONE', #19, #168 ) ;
#58 = DIRECTION ( 'NONE',  ( -0.0000000000000000000, -0.0000000000000000000, -1.000000000000000000 ) ) ;
#59 = ORIENTED_EDGE ( 'NONE', *, *, #122, .F. ) ;
#60 = DIRECTION ( 'NONE',  ( 0.0000000000000000000, 0.0000000000000000000, 1.000000000000000000 ) ) ;
#61 = AXIS2_PLACEMENT_3D ( 'NONE', #131, #66, #37 ) ;
#62 = APPLICATION_PROTOCOL_DEFINITION ( 'international standard', 'config_control_design', 1994, #50 ) ;
#63 = LOCAL_TIME ( 15, 5, 7.000000000000000000, #72 ) ;
#64 = VERTEX_POINT ( 'NONE', #3 ) ;
#65 = PERSON_AND_ORGANIZATION_ROLE ( 'classification_officer' ) ;
#66 = DIRECTION ( 'NONE',  ( 0.0000000000000000000, 0.0000000000000000000, 1.000000000000000000 ) ) ;
#67 = APPROVAL ( #173, 'UNSPECIFIED' ) ;
#68 = DIRECTION ( 'NONE',  ( 0.0000000000000000000, 0.0000000000000000000, 1.000000000000000000 ) ) ;
#69 = APPROVAL_PERSON_ORGANIZATION ( #170, #67, #148 ) ;
#70 = SECURITY_CLASSIFICATION ( '', '', #120 ) ;
#71 = COORDINATED_UNIVERSAL_TIME_OFFSET ( 5, 0, .BEHIND. ) ;
#72 = COORDINATED_UNIVERSAL_TIME_OFFSET ( 5, 0, .BEHIND. ) ;
#73 = CC_DESIGN_APPROVAL ( #129, ( #70 ) ) ;
#74 = DIRECTION ( 'NONE',  ( -0.0000000000000000000, -0.0000000000000000000, -1.000000000000000000 ) ) ;
#75 = AXIS2_PLACEMENT_3D ( 'NONE', #35, #103, #116 ) ;
#76 = CALENDAR_DATE ( 2017, 31, 1 ) ;
#77 = SHAPE_DEFINITION_REPRESENTATION ( #160, #44 ) ;
#78 = PERSON_AND_ORGANIZATION_ROLE ( 'design_owner' ) ;
#79 = COORDINATED_UNIVERSAL_TIME_OFFSET ( 5, 0, .BEHIND. ) ;
#80 = APPLICATION_PROTOCOL_DEFINITION ( 'international standard', 'config_control_design', 1994, #111 ) ;
#81 = DIRECTION ( 'NONE',  ( 0.0000000000000000000, 0.0000000000000000000, 1.000000000000000000 ) ) ;
#82 = PRODUCT_DEFINITION_FORMATION_WITH_SPECIFIED_SOURCE ( 'ANY', '', #29, .NOT_KNOWN. ) ;
#83 = CC_DESIGN_SECURITY_CLASSIFICATION ( #70, ( #82 ) ) ;
#84 = EDGE_CURVE ( 'NONE', #45, #56, #124, .T. ) ;
#85 = APPROVAL_DATE_TIME ( #43, #30 ) ;
#86 = ADVANCED_FACE ( 'NONE', ( #172 ), #99, .T. ) ;
#87 = ADVANCED_FACE ( 'NONE', ( #28 ), #47, .T. ) ;
#88 = CIRCLE ( 'NONE', #12, 5.000000000000000000 ) ;
#89 = CARTESIAN_POINT ( 'NONE',  ( 0.0000000000000000000, 0.0000000000000000000, 1.500000000000000000 ) ) ;
#90 = ORIENTED_EDGE ( 'NONE', *, *, #152, .T. ) ;
#91 = DIRECTION ( 'NONE',  ( -0.0000000000000000000, -0.0000000000000000000, -1.000000000000000000 ) ) ;
#92 = AXIS2_PLACEMENT_3D ( 'NONE', #51, #48, #153 ) ;
#93 = DATE_TIME_ROLE ( 'creation_date' ) ;
#94 = APPROVAL_STATUS ( 'not_yet_approved' ) ;
#95 = CARTESIAN_POINT ( 'NONE',  ( 0.0000000000000000000, 0.0000000000000000000, 0.0000000000000000000 ) ) ;
#96 = APPROVAL_ROLE ( '' ) ;
#97 = CARTESIAN_POINT ( 'NONE',  ( 0.0000000000000000000, 0.0000000000000000000, 0.0000000000000000000 ) ) ;
#98 = ORIENTED_EDGE ( 'NONE', *, *, #15, .T. ) ;
#99 = CYLINDRICAL_SURFACE ( 'NONE', #75, 5.000000000000000000 ) ;
#100 = ORIENTED_EDGE ( 'NONE', *, *, #84, .F. ) ;
#101 = ORIENTED_EDGE ( 'NONE', *, *, #152, .F. ) ;
#102 = DESIGN_CONTEXT ( 'detailed design', #111, 'design' ) ;
#103 = DIRECTION ( 'NONE',  ( -0.0000000000000000000, -0.0000000000000000000, -1.000000000000000000 ) ) ;
#104 = CC_DESIGN_APPROVAL ( #67, ( #82 ) ) ;
#105 =( NAMED_UNIT ( * ) PLANE_ANGLE_UNIT ( ) SI_UNIT ( $, .RADIAN. ) );
#106 = PERSON_AND_ORGANIZATION ( #42, #40 ) ;
#107 = ORIENTED_EDGE ( 'NONE', *, *, #84, .T. ) ;
#108 = PERSON_AND_ORGANIZATION_ROLE ( 'creator' ) ;
#109 = CARTESIAN_POINT ( 'NONE',  ( 0.0000000000000000000, 0.0000000000000000000, 1.500000000000000000 ) ) ;
#110 = AXIS2_PLACEMENT_3D ( 'NONE', #97, #36, #149 ) ;
#111 = APPLICATION_CONTEXT ( 'configuration controlled 3d designs of mechanical parts and assemblies' ) ;
#112 = CALENDAR_DATE ( 2017, 31, 1 ) ;
#113 = APPROVAL_PERSON_ORGANIZATION ( #147, #30, #96 ) ;
#114 = CALENDAR_DATE ( 2017, 31, 1 ) ;
#115 = EDGE_CURVE ( 'NONE', #55, #56, #10, .T. ) ;
#116 = DIRECTION ( 'NONE',  ( -1.000000000000000000, 0.0000000000000000000, 0.0000000000000000000 ) ) ;
#117 = COORDINATED_UNIVERSAL_TIME_OFFSET ( 5, 0, .BEHIND. ) ;
#118 = APPROVAL_DATE_TIME ( #18, #67 ) ;
#119 =( LENGTH_UNIT ( ) NAMED_UNIT ( * ) SI_UNIT ( .MILLI., .METRE. ) );
#120 = SECURITY_CLASSIFICATION_LEVEL ( 'unclassified' ) ;
#121 = PLANE ( 'NONE',  #167 ) ;
#122 = EDGE_CURVE ( 'NONE', #64, #55, #57, .T. ) ;
#123 = DATE_AND_TIME ( #154, #5 ) ;
#124 = LINE ( 'NONE', #145, #155 ) ;
#125 = CIRCLE ( 'NONE', #34, 5.000000000000000000 ) ;
#126 = DIRECTION ( 'NONE',  ( 1.000000000000000000, 0.0000000000000000000, 0.0000000000000000000 ) ) ;
#127 = CC_DESIGN_DATE_AND_TIME_ASSIGNMENT ( #9, #93, ( #8 ) ) ;
#128 = EDGE_LOOP ( 'NONE', ( #98, #137 ) ) ;
#129 = APPROVAL ( #94, 'UNSPECIFIED' ) ;
#130 = CARTESIAN_POINT ( 'NONE',  ( 0.0000000000000000000, 0.0000000000000000000, 1.500000000000000000 ) ) ;
#131 = CARTESIAN_POINT ( 'NONE',  ( 0.0000000000000000000, 0.0000000000000000000, 0.0000000000000000000 ) ) ;
#132 = APPROVAL_PERSON_ORGANIZATION ( #53, #129, #38 ) ;
#133 = FACE_OUTER_BOUND ( 'NONE', #128, .T. ) ;
#134 = AXIS2_PLACEMENT_3D ( 'NONE', #95, #81, #150 ) ;
#135 = COORDINATED_UNIVERSAL_TIME_OFFSET ( 5, 0, .BEHIND. ) ;
#136 = PRODUCT_RELATED_PRODUCT_CATEGORY ( 'detail', '', ( #29 ) ) ;
#137 = ORIENTED_EDGE ( 'NONE', *, *, #31, .T. ) ;
#138 = PERSON_AND_ORGANIZATION ( #42, #40 ) ;
#139 = ADVANCED_FACE ( 'NONE', ( #133 ), #121, .T. ) ;
#140 = ADVANCED_FACE ( 'NONE', ( #24 ), #49, .F. ) ;
#141 = UNCERTAINTY_MEASURE_WITH_UNIT (LENGTH_MEASURE( 1.000000000000000100E-005 ), #119, 'distance_accuracy_value', 'NONE');
#142 = LOCAL_TIME ( 15, 5, 7.000000000000000000, #71 ) ;
#143 = EDGE_LOOP ( 'NONE', ( #6, #166, #11, #100 ) ) ;
#144 = CC_DESIGN_PERSON_AND_ORGANIZATION_ASSIGNMENT ( #1, #78, ( #29 ) ) ;
#145 = CARTESIAN_POINT ( 'NONE',  ( -5.000000000000000000, 0.0000000000000000000, 1.500000000000000000 ) ) ;
#146 = CARTESIAN_POINT ( 'NONE',  ( 0.0000000000000000000, 0.0000000000000000000, 1.500000000000000000 ) ) ;
#147 = PERSON_AND_ORGANIZATION ( #42, #40 ) ;
#148 = APPROVAL_ROLE ( '' ) ;
#149 = DIRECTION ( 'NONE',  ( 1.000000000000000000, 0.0000000000000000000, -0.0000000000000000000 ) ) ;
#150 = DIRECTION ( 'NONE',  ( 1.000000000000000000, 0.0000000000000000000, 0.0000000000000000000 ) ) ;
#151 = PERSON_AND_ORGANIZATION ( #42, #40 ) ;
#152 = EDGE_CURVE ( 'NONE', #56, #55, #159, .T. ) ;
#153 = DIRECTION ( 'NONE',  ( 1.000000000000000000, 0.0000000000000000000, 0.0000000000000000000 ) ) ;
#154 = CALENDAR_DATE ( 2017, 31, 1 ) ;
#155 = VECTOR ( 'NONE', #74, 1000.000000000000000 ) ;
#156 = PERSON_AND_ORGANIZATION ( #42, #40 ) ;
#157 = CARTESIAN_POINT ( 'NONE',  ( -5.000000000000000000, 0.0000000000000000000, 0.0000000000000000000 ) ) ;
#158 = DIRECTION ( 'NONE',  ( 1.000000000000000000, 0.0000000000000000000, 0.0000000000000000000 ) ) ;
#159 = CIRCLE ( 'NONE', #134, 5.000000000000000000 ) ;
#160 = PRODUCT_DEFINITION_SHAPE ( 'NONE', 'NONE',  #8 ) ;
#161 = MECHANICAL_CONTEXT ( 'NONE', #50, 'mechanical' ) ;
#162 = DATE_TIME_ROLE ( 'classification_date' ) ;
#163 = CALENDAR_DATE ( 2017, 31, 1 ) ;
#164 = ORIENTED_EDGE ( 'NONE', *, *, #115, .F. ) ;
#165 = LOCAL_TIME ( 15, 5, 7.000000000000000000, #135 ) ;
#166 = ORIENTED_EDGE ( 'NONE', *, *, #122, .T. ) ;
#167 = AXIS2_PLACEMENT_3D ( 'NONE', #109, #68, #21 ) ;
#168 = VECTOR ( 'NONE', #58, 1000.000000000000000 ) ;
#169 = CARTESIAN_POINT ( 'NONE',  ( 5.000000000000000000, 6.123233995736766300E-016, 0.0000000000000000000 ) ) ;
#170 = PERSON_AND_ORGANIZATION ( #42, #40 ) ;
#171 = APPROVAL_STATUS ( 'not_yet_approved' ) ;
#172 = FACE_OUTER_BOUND ( 'NONE', #143, .T. ) ;
#173 = APPROVAL_STATUS ( 'not_yet_approved' ) ;
#174 = AXIS2_PLACEMENT_3D ( 'NONE', #89, #91, #33 ) ;
#175 =( NAMED_UNIT ( * ) SI_UNIT ( $, .STERADIAN. ) SOLID_ANGLE_UNIT ( ) );
ENDSEC;
END-ISO-10303-21;
