ISO-10303-21;
HEADER;
FILE_DESCRIPTION (( 'STEP AP203' ),
    '1' );
FILE_NAME ('Web Model 17168_17178.step',
    '2021-08-09T14:35:34',
    ( '' ),
    ( '' ),
    'SwSTEP 2.0',
    'SolidWorks 2018',
    '' );
FILE_SCHEMA (( 'CONFIG_CONTROL_DESIGN' ));
ENDSEC;

DATA;
#1 = AXIS2_PLACEMENT_3D ( 'NONE', #95, #27, #65 ) ;
#2 = ORIENTED_EDGE ( 'NONE', *, *, #82, .F. ) ;
#3 = ORIENTED_EDGE ( 'NONE', *, *, #37, .T. ) ;
#4 = MANIFOLD_SOLID_BREP ( 'Boss-Extrude1', #154 ) ;
#5 = CC_DESIGN_PERSON_AND_ORGANIZATION_ASSIGNMENT ( #127, #79, ( #17 ) ) ;
#6 = DIRECTION ( 'NONE',  ( -1.000000000000000000, 0.000000000000000000, 0.000000000000000000 ) ) ;
#7 = DIRECTION ( 'NONE',  ( 1.000000000000000000, 0.000000000000000000, -0.000000000000000000 ) ) ;
#8 = ADVANCED_BREP_SHAPE_REPRESENTATION ( 'Web Model 17168_17178', ( #4, #64 ), #126 ) ;
#9 = AXIS2_PLACEMENT_3D ( 'NONE', #103, #76, #22 ) ;
#10 = CC_DESIGN_PERSON_AND_ORGANIZATION_ASSIGNMENT ( #165, #147, ( #56 ) ) ;
#11 = ORIENTED_EDGE ( 'NONE', *, *, #113, .F. ) ;
#12 = EDGE_CURVE ( 'NONE', #134, #75, #13, .T. ) ;
#13 = CIRCLE ( 'NONE', #1, 0.9842519685039370358 ) ;
#14 = LOCAL_TIME ( 10, 35, 34.00000000000000000, #92 ) ;
#15 = CC_DESIGN_SECURITY_CLASSIFICATION ( #17, ( #96 ) ) ;
#16 = CIRCLE ( 'NONE', #124, 0.9842519685039370358 ) ;
#17 = SECURITY_CLASSIFICATION ( '', '', #132 ) ;
#18 = CIRCLE ( 'NONE', #53, 0.9842519685039370358 ) ;
#19 =( LENGTH_UNIT ( ) NAMED_UNIT ( * ) SI_UNIT ( $, .METRE. ) );
#20 =( CONVERSION_BASED_UNIT ( 'INCH', #23 ) LENGTH_UNIT ( ) NAMED_UNIT ( #31 ) );
#21 = DIRECTION ( 'NONE',  ( 0.000000000000000000, 0.000000000000000000, 1.000000000000000000 ) ) ;
#22 = DIRECTION ( 'NONE',  ( 1.000000000000000000, 0.000000000000000000, 0.000000000000000000 ) ) ;
#23 = LENGTH_MEASURE_WITH_UNIT ( LENGTH_MEASURE( 0.02539999999999999897 ), #19 );
#24 = DATE_TIME_ROLE ( 'classification_date' ) ;
#25 = DATE_AND_TIME ( #102, #32 ) ;
#26 = PERSON_AND_ORGANIZATION_ROLE ( 'creator' ) ;
#27 = DIRECTION ( 'NONE',  ( 0.000000000000000000, 0.000000000000000000, 1.000000000000000000 ) ) ;
#28 = CC_DESIGN_DATE_AND_TIME_ASSIGNMENT ( #73, #24, ( #17 ) ) ;
#29 = AXIS2_PLACEMENT_3D ( 'NONE', #38, #90, #6 ) ;
#30 = VECTOR ( 'NONE', #104, 39.37007874015748143 ) ;
#31 = DIMENSIONAL_EXPONENTS ( 1.000000000000000000, 0.000000000000000000, 0.000000000000000000, 0.000000000000000000, 0.000000000000000000, 0.000000000000000000, 0.000000000000000000 ) ;
#32 = LOCAL_TIME ( 10, 35, 34.00000000000000000, #91 ) ;
#33 = DIRECTION ( 'NONE',  ( -0.000000000000000000, -0.000000000000000000, -1.000000000000000000 ) ) ;
#34 = APPLICATION_PROTOCOL_DEFINITION ( 'international standard', 'config_control_design', 1994, #155 ) ;
#35 = ADVANCED_FACE ( 'NONE', ( #152 ), #122, .T. ) ;
#36 = ORIENTED_EDGE ( 'NONE', *, *, #37, .F. ) ;
#37 = EDGE_CURVE ( 'NONE', #149, #110, #16, .T. ) ;
#38 = CARTESIAN_POINT ( 'NONE',  ( 0.000000000000000000, 0.000000000000000000, 0.03937007874015747977 ) ) ;
#39 = LOCAL_TIME ( 10, 35, 34.00000000000000000, #107 ) ;
#40 = PERSON_AND_ORGANIZATION_ROLE ( 'design_supplier' ) ;
#41 = AXIS2_PLACEMENT_3D ( 'NONE', #87, #130, #7 ) ;
#42 = ORIENTED_EDGE ( 'NONE', *, *, #113, .T. ) ;
#43 = ADVANCED_FACE ( 'NONE', ( #137 ), #111, .T. ) ;
#44 = APPROVAL ( #77, 'UNSPECIFIED' ) ;
#45 = CC_DESIGN_APPROVAL ( #80, ( #17 ) ) ;
#46 = EDGE_LOOP ( 'NONE', ( #145, #159 ) ) ;
#47 = CARTESIAN_POINT ( 'NONE',  ( 0.9842519685039370358, 1.205361022782827973E-16, 0.000000000000000000 ) ) ;
#48 = CARTESIAN_POINT ( 'NONE',  ( 0.000000000000000000, 0.000000000000000000, 0.03937007874015747977 ) ) ;
#49 = CARTESIAN_POINT ( 'NONE',  ( 0.000000000000000000, 0.000000000000000000, 0.000000000000000000 ) ) ;
#50 = EDGE_LOOP ( 'NONE', ( #2, #70, #42, #176 ) ) ;
#51 = CALENDAR_DATE ( 2021, 9, 8 ) ;
#52 = LOCAL_TIME ( 10, 35, 34.00000000000000000, #108 ) ;
#53 = AXIS2_PLACEMENT_3D ( 'NONE', #60, #21, #86 ) ;
#54 = VECTOR ( 'NONE', #33, 39.37007874015748143 ) ;
#55 = CC_DESIGN_PERSON_AND_ORGANIZATION_ASSIGNMENT ( #164, #143, ( #69 ) ) ;
#56 = PRODUCT_DEFINITION ( 'UNKNOWN', '', #96, #150 ) ;
#57 = APPROVAL_PERSON_ORGANIZATION ( #100, #105, #119 ) ;
#58 =( NAMED_UNIT ( * ) PLANE_ANGLE_UNIT ( ) SI_UNIT ( $, .RADIAN. ) );
#59 = APPLICATION_CONTEXT ( 'configuration controlled 3d designs of mechanical parts and assemblies' ) ;
#60 = CARTESIAN_POINT ( 'NONE',  ( 0.000000000000000000, 0.000000000000000000, 0.000000000000000000 ) ) ;
#61 = DATE_TIME_ROLE ( 'creation_date' ) ;
#62 = CC_DESIGN_DATE_AND_TIME_ASSIGNMENT ( #136, #61, ( #56 ) ) ;
#63 = LOCAL_TIME ( 10, 35, 34.00000000000000000, #178 ) ;
#64 = AXIS2_PLACEMENT_3D ( 'NONE', #49, #115, #157 ) ;
#65 = DIRECTION ( 'NONE',  ( 1.000000000000000000, 0.000000000000000000, 0.000000000000000000 ) ) ;
#66 = DATE_AND_TIME ( #138, #63 ) ;
#67 = DATE_AND_TIME ( #117, #52 ) ;
#68 = CC_DESIGN_APPROVAL ( #105, ( #96 ) ) ;
#69 = PRODUCT ( 'Web Model 17168_17178', 'Web Model 17168_17178', '', ( #128 ) ) ;
#70 = ORIENTED_EDGE ( 'NONE', *, *, #161, .T. ) ;
#71 = PRODUCT_RELATED_PRODUCT_CATEGORY ( 'detail', '', ( #69 ) ) ;
#72 = CYLINDRICAL_SURFACE ( 'NONE', #141, 0.9842519685039370358 ) ;
#73 = DATE_AND_TIME ( #51, #14 ) ;
#74 = CARTESIAN_POINT ( 'NONE',  ( -0.9842519685039370358, 0.000000000000000000, 0.000000000000000000 ) ) ;
#75 = VERTEX_POINT ( 'NONE', #106 ) ;
#76 = DIRECTION ( 'NONE',  ( 0.000000000000000000, 0.000000000000000000, 1.000000000000000000 ) ) ;
#77 = APPROVAL_STATUS ( 'not_yet_approved' ) ;
#78 = LINE ( 'NONE', #156, #54 ) ;
#79 = PERSON_AND_ORGANIZATION_ROLE ( 'classification_officer' ) ;
#80 = APPROVAL ( #148, 'UNSPECIFIED' ) ;
#81 = EDGE_LOOP ( 'NONE', ( #36, #11 ) ) ;
#82 = EDGE_CURVE ( 'NONE', #75, #134, #172, .T. ) ;
#83 = FACE_OUTER_BOUND ( 'NONE', #50, .T. ) ;
#84 = EDGE_LOOP ( 'NONE', ( #151, #120, #116, #3 ) ) ;
#85 = CARTESIAN_POINT ( 'NONE',  ( 0.000000000000000000, 0.000000000000000000, 0.000000000000000000 ) ) ;
#86 = DIRECTION ( 'NONE',  ( 1.000000000000000000, 0.000000000000000000, 0.000000000000000000 ) ) ;
#87 = CARTESIAN_POINT ( 'NONE',  ( 0.000000000000000000, 0.000000000000000000, 0.000000000000000000 ) ) ;
#88 = ADVANCED_FACE ( 'NONE', ( #83 ), #72, .T. ) ;
#89 = APPLICATION_PROTOCOL_DEFINITION ( 'international standard', 'config_control_design', 1994, #59 ) ;
#90 = DIRECTION ( 'NONE',  ( -0.000000000000000000, -0.000000000000000000, -1.000000000000000000 ) ) ;
#91 = COORDINATED_UNIVERSAL_TIME_OFFSET ( 5, 0, .BEHIND. ) ;
#92 = COORDINATED_UNIVERSAL_TIME_OFFSET ( 5, 0, .BEHIND. ) ;
#93 = AXIS2_PLACEMENT_3D ( 'NONE', #162, #133, #163 ) ;
#94 = APPROVAL_DATE_TIME ( #67, #80 ) ;
#95 = CARTESIAN_POINT ( 'NONE',  ( 0.000000000000000000, 0.000000000000000000, 0.03937007874015747977 ) ) ;
#96 = PRODUCT_DEFINITION_FORMATION_WITH_SPECIFIED_SOURCE ( 'ANY', '', #69, .NOT_KNOWN. ) ;
#97 = PERSON_AND_ORGANIZATION ( #99, #129 ) ;
#98 = PERSON_AND_ORGANIZATION ( #99, #129 ) ;
#99 = PERSON ( 'UNSPECIFIED', 'UNSPECIFIED', 'UNSPECIFIED', ('UNSPECIFIED'), ('UNSPECIFIED'), ('UNSPECIFIED') ) ;
#100 = PERSON_AND_ORGANIZATION ( #99, #129 ) ;
#101 = UNCERTAINTY_MEASURE_WITH_UNIT (LENGTH_MEASURE( 1.000000000000000082E-05 ), #20, 'distance_accuracy_value', 'NONE');
#102 = CALENDAR_DATE ( 2021, 9, 8 ) ;
#103 = CARTESIAN_POINT ( 'NONE',  ( 0.000000000000000000, 0.000000000000000000, 0.03937007874015747977 ) ) ;
#104 = DIRECTION ( 'NONE',  ( -0.000000000000000000, -0.000000000000000000, -1.000000000000000000 ) ) ;
#105 = APPROVAL ( #158, 'UNSPECIFIED' ) ;
#106 = CARTESIAN_POINT ( 'NONE',  ( 0.9842519685039370358, 1.205361022782827973E-16, 0.03937007874015747977 ) ) ;
#107 = COORDINATED_UNIVERSAL_TIME_OFFSET ( 5, 0, .BEHIND. ) ;
#108 = COORDINATED_UNIVERSAL_TIME_OFFSET ( 5, 0, .BEHIND. ) ;
#109 = EDGE_CURVE ( 'NONE', #134, #149, #78, .T. ) ;
#110 = VERTEX_POINT ( 'NONE', #47 ) ;
#111 = CYLINDRICAL_SURFACE ( 'NONE', #29, 0.9842519685039370358 ) ;
#112 = DIRECTION ( 'NONE',  ( -0.000000000000000000, -0.000000000000000000, -1.000000000000000000 ) ) ;
#113 = EDGE_CURVE ( 'NONE', #110, #149, #18, .T. ) ;
#114 = DIRECTION ( 'NONE',  ( 0.000000000000000000, 0.000000000000000000, 1.000000000000000000 ) ) ;
#115 = DIRECTION ( 'NONE',  ( 0.000000000000000000, 0.000000000000000000, 1.000000000000000000 ) ) ;
#116 = ORIENTED_EDGE ( 'NONE', *, *, #109, .T. ) ;
#117 = CALENDAR_DATE ( 2021, 9, 8 ) ;
#118 = APPROVAL_ROLE ( '' ) ;
#119 = APPROVAL_ROLE ( '' ) ;
#120 = ORIENTED_EDGE ( 'NONE', *, *, #12, .F. ) ;
#121 = PRODUCT_DEFINITION_SHAPE ( 'NONE', 'NONE',  #56 ) ;
#122 = PLANE ( 'NONE',  #93 ) ;
#123 = LINE ( 'NONE', #146, #30 ) ;
#124 = AXIS2_PLACEMENT_3D ( 'NONE', #85, #114, #170 ) ;
#125 = APPROVAL_PERSON_ORGANIZATION ( #97, #44, #173 ) ;
#126 =( GEOMETRIC_REPRESENTATION_CONTEXT ( 3 ) GLOBAL_UNCERTAINTY_ASSIGNED_CONTEXT ( ( #101 ) ) GLOBAL_UNIT_ASSIGNED_CONTEXT ( ( #20, #58, #171 ) ) REPRESENTATION_CONTEXT ( 'NONE', 'WORKASPACE' ) );
#127 = PERSON_AND_ORGANIZATION ( #99, #129 ) ;
#128 = MECHANICAL_CONTEXT ( 'NONE', #155, 'mechanical' ) ;
#129 = ORGANIZATION ( 'UNSPECIFIED', 'UNSPECIFIED', '' ) ;
#130 = DIRECTION ( 'NONE',  ( 0.000000000000000000, 0.000000000000000000, 1.000000000000000000 ) ) ;
#131 = CALENDAR_DATE ( 2021, 9, 8 ) ;
#132 = SECURITY_CLASSIFICATION_LEVEL ( 'unclassified' ) ;
#133 = DIRECTION ( 'NONE',  ( 0.000000000000000000, 0.000000000000000000, 1.000000000000000000 ) ) ;
#134 = VERTEX_POINT ( 'NONE', #140 ) ;
#135 = CC_DESIGN_PERSON_AND_ORGANIZATION_ASSIGNMENT ( #98, #26, ( #96 ) ) ;
#136 = DATE_AND_TIME ( #131, #39 ) ;
#137 = FACE_OUTER_BOUND ( 'NONE', #84, .T. ) ;
#138 = CALENDAR_DATE ( 2021, 9, 8 ) ;
#139 = APPROVAL_PERSON_ORGANIZATION ( #153, #80, #118 ) ;
#140 = CARTESIAN_POINT ( 'NONE',  ( -0.9842519685039370358, 0.000000000000000000, 0.03937007874015747977 ) ) ;
#141 = AXIS2_PLACEMENT_3D ( 'NONE', #48, #112, #169 ) ;
#142 = PLANE ( 'NONE',  #41 ) ;
#143 = PERSON_AND_ORGANIZATION_ROLE ( 'design_owner' ) ;
#144 = ADVANCED_FACE ( 'NONE', ( #160 ), #142, .F. ) ;
#145 = ORIENTED_EDGE ( 'NONE', *, *, #12, .T. ) ;
#146 = CARTESIAN_POINT ( 'NONE',  ( 0.9842519685039370358, 1.205361022782827973E-16, 0.03937007874015747977 ) ) ;
#147 = PERSON_AND_ORGANIZATION_ROLE ( 'creator' ) ;
#148 = APPROVAL_STATUS ( 'not_yet_approved' ) ;
#149 = VERTEX_POINT ( 'NONE', #74 ) ;
#150 = DESIGN_CONTEXT ( 'detailed design', #59, 'design' ) ;
#151 = ORIENTED_EDGE ( 'NONE', *, *, #161, .F. ) ;
#152 = FACE_OUTER_BOUND ( 'NONE', #46, .T. ) ;
#153 = PERSON_AND_ORGANIZATION ( #99, #129 ) ;
#154 = CLOSED_SHELL ( 'NONE', ( #88, #43, #35, #144 ) ) ;
#155 = APPLICATION_CONTEXT ( 'configuration controlled 3d designs of mechanical parts and assemblies' ) ;
#156 = CARTESIAN_POINT ( 'NONE',  ( -0.9842519685039370358, 0.000000000000000000, 0.03937007874015747977 ) ) ;
#157 = DIRECTION ( 'NONE',  ( 1.000000000000000000, 0.000000000000000000, 0.000000000000000000 ) ) ;
#158 = APPROVAL_STATUS ( 'not_yet_approved' ) ;
#159 = ORIENTED_EDGE ( 'NONE', *, *, #82, .T. ) ;
#160 = FACE_OUTER_BOUND ( 'NONE', #81, .T. ) ;
#161 = EDGE_CURVE ( 'NONE', #75, #110, #123, .T. ) ;
#162 = CARTESIAN_POINT ( 'NONE',  ( 0.000000000000000000, 0.000000000000000000, 0.03937007874015747977 ) ) ;
#163 = DIRECTION ( 'NONE',  ( 1.000000000000000000, 0.000000000000000000, -0.000000000000000000 ) ) ;
#164 = PERSON_AND_ORGANIZATION ( #99, #129 ) ;
#165 = PERSON_AND_ORGANIZATION ( #99, #129 ) ;
#166 = PERSON_AND_ORGANIZATION ( #99, #129 ) ;
#167 = SHAPE_DEFINITION_REPRESENTATION ( #121, #8 ) ;
#168 = APPROVAL_DATE_TIME ( #25, #44 ) ;
#169 = DIRECTION ( 'NONE',  ( -1.000000000000000000, 0.000000000000000000, 0.000000000000000000 ) ) ;
#170 = DIRECTION ( 'NONE',  ( 1.000000000000000000, 0.000000000000000000, 0.000000000000000000 ) ) ;
#171 =( NAMED_UNIT ( * ) SI_UNIT ( $, .STERADIAN. ) SOLID_ANGLE_UNIT ( ) );
#172 = CIRCLE ( 'NONE', #9, 0.9842519685039370358 ) ;
#173 = APPROVAL_ROLE ( '' ) ;
#174 = CC_DESIGN_PERSON_AND_ORGANIZATION_ASSIGNMENT ( #166, #40, ( #96 ) ) ;
#175 = APPROVAL_DATE_TIME ( #66, #105 ) ;
#176 = ORIENTED_EDGE ( 'NONE', *, *, #109, .F. ) ;
#177 = CC_DESIGN_APPROVAL ( #44, ( #56 ) ) ;
#178 = COORDINATED_UNIVERSAL_TIME_OFFSET ( 5, 0, .BEHIND. ) ;
ENDSEC;
END-ISO-10303-21;
