ISO-10303-21;
HEADER;
FILE_DESCRIPTION (( 'STEP AP203' ),
    '1' );
FILE_NAME ('Web Model 45309_49639.step',
    '2019-01-07T15:45:23',
    ( '' ),
    ( '' ),
    'SwSTEP 2.0',
    'SolidWorks 2016',
    '' );
FILE_SCHEMA (( 'CONFIG_CONTROL_DESIGN' ));
ENDSEC;

DATA;
#1 = PERSON_AND_ORGANIZATION ( #103, #94 ) ;
#2 = CC_DESIGN_DATE_AND_TIME_ASSIGNMENT ( #64, #3, ( #127 ) ) ;
#3 = DATE_TIME_ROLE ( 'classification_date' ) ;
#4 = VERTEX_POINT ( 'NONE', #62 ) ;
#5 = COORDINATED_UNIVERSAL_TIME_OFFSET ( 5, 0, .BEHIND. ) ;
#6 = APPROVAL ( #15, 'UNSPECIFIED' ) ;
#7 = ORIENTED_EDGE ( 'NONE', *, *, #21, .F. ) ;
#8 = APPROVAL ( #29, 'UNSPECIFIED' ) ;
#9 = DIRECTION ( 'NONE',  ( -1.000000000000000000, 0.0000000000000000000, 0.0000000000000000000 ) ) ;
#10 = CIRCLE ( 'NONE', #67, 6.250000000000000000 ) ;
#11 = DIRECTION ( 'NONE',  ( 1.000000000000000000, 0.0000000000000000000, -0.0000000000000000000 ) ) ;
#12 = CC_DESIGN_PERSON_AND_ORGANIZATION_ASSIGNMENT ( #175, #109, ( #163 ) ) ;
#13 = DIRECTION ( 'NONE',  ( 0.0000000000000000000, 0.0000000000000000000, 1.000000000000000000 ) ) ;
#14 = ORIENTED_EDGE ( 'NONE', *, *, #150, .T. ) ;
#15 = APPROVAL_STATUS ( 'not_yet_approved' ) ;
#16 = DATE_AND_TIME ( #143, #130 ) ;
#17 = FACE_OUTER_BOUND ( 'NONE', #43, .T. ) ;
#18 = CIRCLE ( 'NONE', #173, 6.250000000000000000 ) ;
#19 = DATE_AND_TIME ( #44, #55 ) ;
#20 = DIRECTION ( 'NONE',  ( -0.0000000000000000000, -0.0000000000000000000, -1.000000000000000000 ) ) ;
#21 = EDGE_CURVE ( 'NONE', #4, #82, #18, .T. ) ;
#22 = CARTESIAN_POINT ( 'NONE',  ( -6.250000000000000000, 0.0000000000000000000, 1.000000000000000000 ) ) ;
#23 = PERSON_AND_ORGANIZATION ( #103, #94 ) ;
#24 = DIRECTION ( 'NONE',  ( 0.0000000000000000000, 0.0000000000000000000, 1.000000000000000000 ) ) ;
#25 = PERSON_AND_ORGANIZATION_ROLE ( 'creator' ) ;
#26 = LOCAL_TIME ( 10, 45, 23.00000000000000000, #50 ) ;
#27 = DIRECTION ( 'NONE',  ( 1.000000000000000000, 0.0000000000000000000, 0.0000000000000000000 ) ) ;
#28 = EDGE_CURVE ( 'NONE', #151, #82, #85, .T. ) ;
#29 = APPROVAL_STATUS ( 'not_yet_approved' ) ;
#30 = COORDINATED_UNIVERSAL_TIME_OFFSET ( 5, 0, .BEHIND. ) ;
#31 = ADVANCED_FACE ( 'NONE', ( #53 ), #74, .T. ) ;
#32 = CIRCLE ( 'NONE', #56, 6.250000000000000000 ) ;
#33 = CC_DESIGN_APPROVAL ( #8, ( #127 ) ) ;
#34 = PRODUCT ( 'Web Model 45309_49639', 'Web Model 45309_49639', '', ( #133 ) ) ;
#35 = ORIENTED_EDGE ( 'NONE', *, *, #150, .F. ) ;
#36 = PRODUCT_RELATED_PRODUCT_CATEGORY ( 'detail', '', ( #34 ) ) ;
#37 = APPLICATION_PROTOCOL_DEFINITION ( 'international standard', 'config_control_design', 1994, #65 ) ;
#38 = APPROVAL_DATE_TIME ( #19, #8 ) ;
#39 = DIRECTION ( 'NONE',  ( -0.0000000000000000000, -0.0000000000000000000, -1.000000000000000000 ) ) ;
#40 = CLOSED_SHELL ( 'NONE', ( #84, #31, #124, #125 ) ) ;
#41 = CIRCLE ( 'NONE', #172, 6.250000000000000000 ) ;
#42 = APPROVAL_ROLE ( '' ) ;
#43 = EDGE_LOOP ( 'NONE', ( #96, #145, #59, #126 ) ) ;
#44 = CALENDAR_DATE ( 2019, 7, 1 ) ;
#45 = PLANE ( 'NONE',  #87 ) ;
#46 = DIRECTION ( 'NONE',  ( -1.000000000000000000, 0.0000000000000000000, 0.0000000000000000000 ) ) ;
#47 = ORIENTED_EDGE ( 'NONE', *, *, #110, .T. ) ;
#48 = EDGE_LOOP ( 'NONE', ( #14, #111 ) ) ;
#49 = PERSON_AND_ORGANIZATION_ROLE ( 'design_owner' ) ;
#50 = COORDINATED_UNIVERSAL_TIME_OFFSET ( 5, 0, .BEHIND. ) ;
#51 = CARTESIAN_POINT ( 'NONE',  ( 0.0000000000000000000, 0.0000000000000000000, 0.0000000000000000000 ) ) ;
#52 = CARTESIAN_POINT ( 'NONE',  ( 0.0000000000000000000, 0.0000000000000000000, -1.000000000000000000 ) ) ;
#53 = FACE_OUTER_BOUND ( 'NONE', #174, .T. ) ;
#54 = CC_DESIGN_SECURITY_CLASSIFICATION ( #127, ( #163 ) ) ;
#55 = LOCAL_TIME ( 10, 45, 23.00000000000000000, #30 ) ;
#56 = AXIS2_PLACEMENT_3D ( 'NONE', #165, #78, #131 ) ;
#57 = CALENDAR_DATE ( 2019, 7, 1 ) ;
#58 = PRODUCT_DEFINITION ( 'UNKNOWN', '', #163, #168 ) ;
#59 = ORIENTED_EDGE ( 'NONE', *, *, #21, .T. ) ;
#60 = COORDINATED_UNIVERSAL_TIME_OFFSET ( 5, 0, .BEHIND. ) ;
#61 = CARTESIAN_POINT ( 'NONE',  ( 6.250000000000000000, 7.654042494670957600E-016, 1.000000000000000000 ) ) ;
#62 = CARTESIAN_POINT ( 'NONE',  ( 6.250000000000000000, 7.654042494670957600E-016, -1.000000000000000000 ) ) ;
#63 = CARTESIAN_POINT ( 'NONE',  ( 0.0000000000000000000, 0.0000000000000000000, 1.000000000000000000 ) ) ;
#64 = DATE_AND_TIME ( #57, #26 ) ;
#65 = APPLICATION_CONTEXT ( 'configuration controlled 3d designs of mechanical parts and assemblies' ) ;
#66 = PERSON_AND_ORGANIZATION ( #103, #94 ) ;
#67 = AXIS2_PLACEMENT_3D ( 'NONE', #52, #24, #90 ) ;
#68 = APPLICATION_PROTOCOL_DEFINITION ( 'international standard', 'config_control_design', 1994, #149 ) ;
#69 = VERTEX_POINT ( 'NONE', #61 ) ;
#70 = PERSON_AND_ORGANIZATION_ROLE ( 'classification_officer' ) ;
#71 = CALENDAR_DATE ( 2019, 7, 1 ) ;
#72 = VECTOR ( 'NONE', #39, 1000.000000000000000 ) ;
#73 = AXIS2_PLACEMENT_3D ( 'NONE', #116, #104, #11 ) ;
#74 = CYLINDRICAL_SURFACE ( 'NONE', #122, 6.250000000000000000 ) ;
#75 = CARTESIAN_POINT ( 'NONE',  ( 0.0000000000000000000, 0.0000000000000000000, 1.000000000000000000 ) ) ;
#76 = DIRECTION ( 'NONE',  ( 1.000000000000000000, 0.0000000000000000000, 0.0000000000000000000 ) ) ;
#77 = CC_DESIGN_PERSON_AND_ORGANIZATION_ASSIGNMENT ( #117, #49, ( #34 ) ) ;
#78 = DIRECTION ( 'NONE',  ( 0.0000000000000000000, 0.0000000000000000000, 1.000000000000000000 ) ) ;
#79 = COORDINATED_UNIVERSAL_TIME_OFFSET ( 5, 0, .BEHIND. ) ;
#80 = APPROVAL_STATUS ( 'not_yet_approved' ) ;
#81 = CC_DESIGN_APPROVAL ( #6, ( #163 ) ) ;
#82 = VERTEX_POINT ( 'NONE', #144 ) ;
#83 =( GEOMETRIC_REPRESENTATION_CONTEXT ( 3 ) GLOBAL_UNCERTAINTY_ASSIGNED_CONTEXT ( ( #159 ) ) GLOBAL_UNIT_ASSIGNED_CONTEXT ( ( #91, #147, #88 ) ) REPRESENTATION_CONTEXT ( 'NONE', 'WORKASPACE' ) );
#84 = ADVANCED_FACE ( 'NONE', ( #17 ), #138, .T. ) ;
#85 = LINE ( 'NONE', #22, #155 ) ;
#86 = DIRECTION ( 'NONE',  ( -0.0000000000000000000, -0.0000000000000000000, -1.000000000000000000 ) ) ;
#87 = AXIS2_PLACEMENT_3D ( 'NONE', #75, #164, #162 ) ;
#88 =( NAMED_UNIT ( * ) SI_UNIT ( $, .STERADIAN. ) SOLID_ANGLE_UNIT ( ) );
#89 = APPROVAL_PERSON_ORGANIZATION ( #66, #8, #152 ) ;
#90 = DIRECTION ( 'NONE',  ( 1.000000000000000000, 0.0000000000000000000, 0.0000000000000000000 ) ) ;
#91 =( LENGTH_UNIT ( ) NAMED_UNIT ( * ) SI_UNIT ( .MILLI., .METRE. ) );
#92 = DATE_AND_TIME ( #71, #139 ) ;
#93 = ORIENTED_EDGE ( 'NONE', *, *, #28, .T. ) ;
#94 = ORGANIZATION ( 'UNSPECIFIED', 'UNSPECIFIED', '' ) ;
#95 = CC_DESIGN_APPROVAL ( #153, ( #58 ) ) ;
#96 = ORIENTED_EDGE ( 'NONE', *, *, #141, .F. ) ;
#97 = PERSON_AND_ORGANIZATION ( #103, #94 ) ;
#98 = LINE ( 'NONE', #119, #72 ) ;
#99 = APPROVAL_DATE_TIME ( #16, #153 ) ;
#100 = DIRECTION ( 'NONE',  ( 0.0000000000000000000, 0.0000000000000000000, 1.000000000000000000 ) ) ;
#101 = PERSON_AND_ORGANIZATION ( #103, #94 ) ;
#102 = FACE_OUTER_BOUND ( 'NONE', #154, .T. ) ;
#103 = PERSON ( 'UNSPECIFIED', 'UNSPECIFIED', 'UNSPECIFIED', ('UNSPECIFIED'), ('UNSPECIFIED'), ('UNSPECIFIED') ) ;
#104 = DIRECTION ( 'NONE',  ( 0.0000000000000000000, 0.0000000000000000000, 1.000000000000000000 ) ) ;
#105 = APPROVAL_PERSON_ORGANIZATION ( #1, #153, #134 ) ;
#106 = DIRECTION ( 'NONE',  ( 1.000000000000000000, 0.0000000000000000000, 0.0000000000000000000 ) ) ;
#107 = AXIS2_PLACEMENT_3D ( 'NONE', #51, #13, #106 ) ;
#108 = ORIENTED_EDGE ( 'NONE', *, *, #110, .F. ) ;
#109 = PERSON_AND_ORGANIZATION_ROLE ( 'creator' ) ;
#110 = EDGE_CURVE ( 'NONE', #82, #4, #10, .T. ) ;
#111 = ORIENTED_EDGE ( 'NONE', *, *, #141, .T. ) ;
#112 = AXIS2_PLACEMENT_3D ( 'NONE', #142, #86, #9 ) ;
#113 = PRODUCT_DEFINITION_SHAPE ( 'NONE', 'NONE',  #58 ) ;
#114 = CC_DESIGN_PERSON_AND_ORGANIZATION_ASSIGNMENT ( #101, #25, ( #58 ) ) ;
#115 = CARTESIAN_POINT ( 'NONE',  ( 0.0000000000000000000, 0.0000000000000000000, -1.000000000000000000 ) ) ;
#116 = CARTESIAN_POINT ( 'NONE',  ( 0.0000000000000000000, 0.0000000000000000000, -1.000000000000000000 ) ) ;
#117 = PERSON_AND_ORGANIZATION ( #103, #94 ) ;
#118 = DIRECTION ( 'NONE',  ( 0.0000000000000000000, 0.0000000000000000000, 1.000000000000000000 ) ) ;
#119 = CARTESIAN_POINT ( 'NONE',  ( 6.250000000000000000, 7.654042494670957600E-016, 1.000000000000000000 ) ) ;
#120 = PERSON_AND_ORGANIZATION_ROLE ( 'design_supplier' ) ;
#121 = DATE_TIME_ROLE ( 'creation_date' ) ;
#122 = AXIS2_PLACEMENT_3D ( 'NONE', #63, #20, #46 ) ;
#123 = PERSON_AND_ORGANIZATION ( #103, #94 ) ;
#124 = ADVANCED_FACE ( 'NONE', ( #158 ), #45, .T. ) ;
#125 = ADVANCED_FACE ( 'NONE', ( #102 ), #148, .F. ) ;
#126 = ORIENTED_EDGE ( 'NONE', *, *, #28, .F. ) ;
#127 = SECURITY_CLASSIFICATION ( '', '', #166 ) ;
#128 = ADVANCED_BREP_SHAPE_REPRESENTATION ( 'Web Model 45309_49639', ( #140, #107 ), #83 ) ;
#129 = APPROVAL_DATE_TIME ( #161, #6 ) ;
#130 = LOCAL_TIME ( 10, 45, 23.00000000000000000, #5 ) ;
#131 = DIRECTION ( 'NONE',  ( 1.000000000000000000, 0.0000000000000000000, 0.0000000000000000000 ) ) ;
#132 = EDGE_CURVE ( 'NONE', #69, #4, #98, .T. ) ;
#133 = MECHANICAL_CONTEXT ( 'NONE', #149, 'mechanical' ) ;
#134 = APPROVAL_ROLE ( '' ) ;
#135 = CARTESIAN_POINT ( 'NONE',  ( -6.250000000000000000, 0.0000000000000000000, 1.000000000000000000 ) ) ;
#136 = ORIENTED_EDGE ( 'NONE', *, *, #132, .F. ) ;
#137 = LOCAL_TIME ( 10, 45, 23.00000000000000000, #79 ) ;
#138 = CYLINDRICAL_SURFACE ( 'NONE', #112, 6.250000000000000000 ) ;
#139 = LOCAL_TIME ( 10, 45, 23.00000000000000000, #60 ) ;
#140 = MANIFOLD_SOLID_BREP ( 'Boss-Extrude1', #40 ) ;
#141 = EDGE_CURVE ( 'NONE', #69, #151, #32, .T. ) ;
#142 = CARTESIAN_POINT ( 'NONE',  ( 0.0000000000000000000, 0.0000000000000000000, 1.000000000000000000 ) ) ;
#143 = CALENDAR_DATE ( 2019, 7, 1 ) ;
#144 = CARTESIAN_POINT ( 'NONE',  ( -6.250000000000000000, 0.0000000000000000000, -1.000000000000000000 ) ) ;
#145 = ORIENTED_EDGE ( 'NONE', *, *, #132, .T. ) ;
#146 = SHAPE_DEFINITION_REPRESENTATION ( #113, #128 ) ;
#147 =( NAMED_UNIT ( * ) PLANE_ANGLE_UNIT ( ) SI_UNIT ( $, .RADIAN. ) );
#148 = PLANE ( 'NONE',  #73 ) ;
#149 = APPLICATION_CONTEXT ( 'configuration controlled 3d designs of mechanical parts and assemblies' ) ;
#150 = EDGE_CURVE ( 'NONE', #151, #69, #41, .T. ) ;
#151 = VERTEX_POINT ( 'NONE', #135 ) ;
#152 = APPROVAL_ROLE ( '' ) ;
#153 = APPROVAL ( #80, 'UNSPECIFIED' ) ;
#154 = EDGE_LOOP ( 'NONE', ( #108, #7 ) ) ;
#155 = VECTOR ( 'NONE', #157, 1000.000000000000000 ) ;
#156 = CC_DESIGN_DATE_AND_TIME_ASSIGNMENT ( #92, #121, ( #58 ) ) ;
#157 = DIRECTION ( 'NONE',  ( -0.0000000000000000000, -0.0000000000000000000, -1.000000000000000000 ) ) ;
#158 = FACE_OUTER_BOUND ( 'NONE', #48, .T. ) ;
#159 = UNCERTAINTY_MEASURE_WITH_UNIT (LENGTH_MEASURE( 1.000000000000000100E-005 ), #91, 'distance_accuracy_value', 'NONE');
#160 = CARTESIAN_POINT ( 'NONE',  ( 0.0000000000000000000, 0.0000000000000000000, 1.000000000000000000 ) ) ;
#161 = DATE_AND_TIME ( #169, #137 ) ;
#162 = DIRECTION ( 'NONE',  ( 1.000000000000000000, 0.0000000000000000000, -0.0000000000000000000 ) ) ;
#163 = PRODUCT_DEFINITION_FORMATION_WITH_SPECIFIED_SOURCE ( 'ANY', '', #34, .NOT_KNOWN. ) ;
#164 = DIRECTION ( 'NONE',  ( 0.0000000000000000000, 0.0000000000000000000, 1.000000000000000000 ) ) ;
#165 = CARTESIAN_POINT ( 'NONE',  ( 0.0000000000000000000, 0.0000000000000000000, 1.000000000000000000 ) ) ;
#166 = SECURITY_CLASSIFICATION_LEVEL ( 'unclassified' ) ;
#167 = CC_DESIGN_PERSON_AND_ORGANIZATION_ASSIGNMENT ( #123, #120, ( #163 ) ) ;
#168 = DESIGN_CONTEXT ( 'detailed design', #65, 'design' ) ;
#169 = CALENDAR_DATE ( 2019, 7, 1 ) ;
#170 = CC_DESIGN_PERSON_AND_ORGANIZATION_ASSIGNMENT ( #97, #70, ( #127 ) ) ;
#171 = APPROVAL_PERSON_ORGANIZATION ( #23, #6, #42 ) ;
#172 = AXIS2_PLACEMENT_3D ( 'NONE', #160, #118, #27 ) ;
#173 = AXIS2_PLACEMENT_3D ( 'NONE', #115, #100, #76 ) ;
#174 = EDGE_LOOP ( 'NONE', ( #136, #35, #93, #47 ) ) ;
#175 = PERSON_AND_ORGANIZATION ( #103, #94 ) ;
ENDSEC;
END-ISO-10303-21;
