ISO-10303-21;
HEADER;
FILE_DESCRIPTION (( 'STEP AP203' ),
    '1' );
FILE_NAME ('4318-E0W.STEP',
    '2015-06-17T20:44:43',
    ( 'admin' ),
    ( '' ),
    'SwSTEP 2.0',
    'SolidWorks 2014',
    '' );
FILE_SCHEMA (( 'CONFIG_CONTROL_DESIGN' ));
ENDSEC;

DATA;
#1 = APPROVAL_STATUS ( 'not_yet_approved' ) ;
#2 = CARTESIAN_POINT ( 'NONE',  ( 0.0000000000000000000, 0.0000000000000000000, -1.102330435557817600 ) ) ;
#3 = ADVANCED_FACE ( 'NONE', ( #7 ), #227, .T. ) ;
#4 = ORIENTED_EDGE ( 'NONE', *, *, #174, .T. ) ;
#5 = VECTOR ( 'NONE', #113, 1000.000000000000100 ) ;
#6 = CARTESIAN_POINT ( 'NONE',  ( 0.0000000000000000000, 0.0000000000000000000, 1.102330435557831400 ) ) ;
#7 = FACE_OUTER_BOUND ( 'NONE', #285, .T. ) ;
#8 = CARTESIAN_POINT ( 'NONE',  ( -1.526794175005070700E-015, -12.46722055753613400, -1.102330435557821000 ) ) ;
#9 = VERTEX_POINT ( 'NONE', #202 ) ;
#10 = CIRCLE ( 'NONE', #111, 12.46722055753612100 ) ;
#11 = CARTESIAN_POINT ( 'NONE',  ( 0.0000000000000000000, 0.0000000000000000000, 32.35000000000000100 ) ) ;
#12 = AXIS2_PLACEMENT_3D ( 'NONE', #11, #254, #61 ) ;
#13 = PERSON_AND_ORGANIZATION ( #215, #332 ) ;
#14 = ORIENTED_EDGE ( 'NONE', *, *, #91, .T. ) ;
#15 = PERSON_AND_ORGANIZATION_ROLE ( 'creator' ) ;
#16 = CARTESIAN_POINT ( 'NONE',  ( 12.46722055753610500, 1.541047804961102700E-015, 1.102330435557831400 ) ) ;
#17 = AXIS2_PLACEMENT_3D ( 'NONE', #326, #274, #297 ) ;
#18 = LOCAL_TIME ( 16, 44, 43.00000000000000000, #101 ) ;
#19 = ORIENTED_EDGE ( 'NONE', *, *, #282, .F. ) ;
#20 = ORIENTED_EDGE ( 'NONE', *, *, #114, .T. ) ;
#21 = CIRCLE ( 'NONE', #331, 12.46722055753610500 ) ;
#22 = EDGE_LOOP ( 'NONE', ( #325, #244, #167, #132 ) ) ;
#23 = AXIS2_PLACEMENT_3D ( 'NONE', #2, #330, #55 ) ;
#24 = PERSON_AND_ORGANIZATION ( #215, #332 ) ;
#25 = DIRECTION ( 'NONE',  ( -0.0000000000000000000, -0.0000000000000000000, 1.000000000000000000 ) ) ;
#26 = CARTESIAN_POINT ( 'NONE',  ( 0.0000000000000000000, 0.0000000000000000000, 32.35000000000000100 ) ) ;
#27 = DIRECTION ( 'NONE',  ( -0.0000000000000000000, -0.0000000000000000000, 1.000000000000000000 ) ) ;
#28 =( NAMED_UNIT ( * ) PLANE_ANGLE_UNIT ( ) SI_UNIT ( $, .RADIAN. ) );
#29 = CARTESIAN_POINT ( 'NONE',  ( 12.69999999999999900, 0.0000000000000000000, 3.350000000000000500 ) ) ;
#30 = ORIENTED_EDGE ( 'NONE', *, *, #356, .T. ) ;
#31 = ORIENTED_EDGE ( 'NONE', *, *, #230, .T. ) ;
#32 = DIRECTION ( 'NONE',  ( -1.000000000000000000, 1.224646799147353200E-016, 0.0000000000000000000 ) ) ;
#33 = APPLICATION_CONTEXT ( 'configuration controlled 3d designs of mechanical parts and assemblies' ) ;
#34 = CARTESIAN_POINT ( 'NONE',  ( -12.69999999999999900, 1.555301434917138400E-015, 3.350000000000000500 ) ) ;
#35 = EDGE_CURVE ( 'NONE', #9, #350, #10, .T. ) ;
#36 = LOCAL_TIME ( 16, 44, 43.00000000000000000, #338 ) ;
#37 = CIRCLE ( 'NONE', #177, 12.46722055753610500 ) ;
#38 = DIRECTION ( 'NONE',  ( 0.0000000000000000000, 1.000000000000000000, 0.0000000000000000000 ) ) ;
#39 = EDGE_CURVE ( 'NONE', #339, #68, #301, .T. ) ;
#40 = AXIS2_PLACEMENT_3D ( 'NONE', #329, #73, #216 ) ;
#41 = DIRECTION ( 'NONE',  ( -1.000000000000000000, 0.0000000000000000000, 0.0000000000000000000 ) ) ;
#42 = EDGE_CURVE ( 'NONE', #270, #173, #198, .T. ) ;
#43 = ORIENTED_EDGE ( 'NONE', *, *, #35, .T. ) ;
#44 = DIRECTION ( 'NONE',  ( 0.0000000000000000000, 0.0000000000000000000, -1.000000000000000000 ) ) ;
#45 = EDGE_LOOP ( 'NONE', ( #30, #248, #109, #272 ) ) ;
#46 = ORIENTED_EDGE ( 'NONE', *, *, #306, .T. ) ;
#47 = ORIENTED_EDGE ( 'NONE', *, *, #42, .F. ) ;
#48 = EDGE_CURVE ( 'NONE', #350, #270, #185, .T. ) ;
#49 = EDGE_CURVE ( 'NONE', #68, #345, #81, .T. ) ;
#50 = ORIENTED_EDGE ( 'NONE', *, *, #347, .T. ) ;
#51 = DIRECTION ( 'NONE',  ( -0.0000000000000000000, -0.0000000000000000000, 1.000000000000000000 ) ) ;
#52 = UNCERTAINTY_MEASURE_WITH_UNIT (LENGTH_MEASURE( 1.000000000000000100E-005 ), #340, 'distance_accuracy_value', 'NONE');
#53 = DIRECTION ( 'NONE',  ( 0.0000000000000000000, 0.0000000000000000000, -1.000000000000000000 ) ) ;
#54 = VECTOR ( 'NONE', #27, 1000.000000000000000 ) ;
#55 = DIRECTION ( 'NONE',  ( 1.000000000000000000, 0.0000000000000000000, 0.0000000000000000000 ) ) ;
#56 = DIRECTION ( 'NONE',  ( -0.0000000000000000000, -0.0000000000000000000, 1.000000000000000000 ) ) ;
#57 = EDGE_CURVE ( 'NONE', #103, #83, #234, .T. ) ;
#58 = DIRECTION ( 'NONE',  ( 0.0000000000000000000, 1.000000000000000000, 0.0000000000000000000 ) ) ;
#59 = LINE ( 'NONE', #247, #5 ) ;
#60 = DIRECTION ( 'NONE',  ( 0.0000000000000000000, 0.0000000000000000000, 1.000000000000000000 ) ) ;
#61 = DIRECTION ( 'NONE',  ( -1.224646799147353200E-016, -1.000000000000000000, 0.0000000000000000000 ) ) ;
#62 = VERTEX_POINT ( 'NONE', #284 ) ;
#63 = ADVANCED_FACE ( 'NONE', ( #180 ), #144, .T. ) ;
#64 = FACE_OUTER_BOUND ( 'NONE', #93, .T. ) ;
#65 = DIRECTION ( 'NONE',  ( 0.0000000000000000000, 1.000000000000000000, 0.0000000000000000000 ) ) ;
#66 = ADVANCED_FACE ( 'NONE', ( #264 ), #165, .T. ) ;
#67 = AXIS2_PLACEMENT_3D ( 'NONE', #267, #80, #65 ) ;
#68 = VERTEX_POINT ( 'NONE', #352 ) ;
#69 = VECTOR ( 'NONE', #169, 1000.000000000000100 ) ;
#70 = MANIFOLD_SOLID_BREP ( '4318-001-1-solid1', #252 ) ;
#71 = AXIS2_PLACEMENT_3D ( 'NONE', #104, #256, #122 ) ;
#72 = LINE ( 'NONE', #343, #69 ) ;
#73 = DIRECTION ( 'NONE',  ( 0.0000000000000000000, 0.0000000000000000000, -1.000000000000000000 ) ) ;
#74 = CARTESIAN_POINT ( 'NONE',  ( -12.69999999999999900, 1.555301434917138400E-015, -0.7646519538268350400 ) ) ;
#75 = CARTESIAN_POINT ( 'NONE',  ( 0.0000000000000000000, 0.0000000000000000000, -0.7646519538268350400 ) ) ;
#76 = DIRECTION ( 'NONE',  ( 0.0000000000000000000, 0.0000000000000000000, -1.000000000000000000 ) ) ;
#77 = CALENDAR_DATE ( 2015, 17, 6 ) ;
#78 = PRODUCT_RELATED_PRODUCT_CATEGORY ( 'detail', '', ( #313 ) ) ;
#79 = ORIENTED_EDGE ( 'NONE', *, *, #49, .F. ) ;
#80 = DIRECTION ( 'NONE',  ( -1.000000000000000000, 0.0000000000000000000, 0.0000000000000000000 ) ) ;
#81 = CIRCLE ( 'NONE', #357, 12.69999999999999900 ) ;
#82 = ORIENTED_EDGE ( 'NONE', *, *, #85, .F. ) ;
#83 = VERTEX_POINT ( 'NONE', #92 ) ;
#84 = AXIS2_PLACEMENT_3D ( 'NONE', #116, #157, #44 ) ;
#85 = EDGE_CURVE ( 'NONE', #102, #62, #155, .T. ) ;
#86 = ORIENTED_EDGE ( 'NONE', *, *, #223, .F. ) ;
#87 = ORIENTED_EDGE ( 'NONE', *, *, #35, .F. ) ;
#88 = DIRECTION ( 'NONE',  ( 1.000000000000000000, 0.0000000000000000000, 0.0000000000000000000 ) ) ;
#89 = SPHERICAL_SURFACE ( 'NONE', #67, 35.70000000000000300 ) ;
#90 = DIRECTION ( 'NONE',  ( 0.0000000000000000000, 1.000000000000000000, 0.0000000000000000000 ) ) ;
#91 = EDGE_CURVE ( 'NONE', #62, #83, #110, .T. ) ;
#92 = CARTESIAN_POINT ( 'NONE',  ( 0.0000000000000000000, 2.185994536478025800E-015, 3.349999999999998800 ) ) ;
#93 = EDGE_LOOP ( 'NONE', ( #219, #4, #46, #43 ) ) ;
#94 = CIRCLE ( 'NONE', #12, 35.70000000000000300 ) ;
#95 = ADVANCED_FACE ( 'NONE', ( #333 ), #251, .T. ) ;
#96 = CC_DESIGN_SECURITY_CLASSIFICATION ( #210, ( #304 ) ) ;
#97 = DATE_AND_TIME ( #117, #36 ) ;
#98 = ORIENTED_EDGE ( 'NONE', *, *, #42, .T. ) ;
#99 = CC_DESIGN_APPROVAL ( #163, ( #210 ) ) ;
#100 = PERSON_AND_ORGANIZATION_ROLE ( 'classification_officer' ) ;
#101 = COORDINATED_UNIVERSAL_TIME_OFFSET ( 5, 0, .BEHIND. ) ;
#102 = VERTEX_POINT ( 'NONE', #328 ) ;
#103 = VERTEX_POINT ( 'NONE', #196 ) ;
#104 = CARTESIAN_POINT ( 'NONE',  ( 0.0000000000000000000, 0.0000000000000000000, -1.102330435557817600 ) ) ;
#105 = FACE_OUTER_BOUND ( 'NONE', #207, .T. ) ;
#106 = CARTESIAN_POINT ( 'NONE',  ( 0.0000000000000000000, 0.0000000000000000000, -0.7646519538268350400 ) ) ;
#107 = CARTESIAN_POINT ( 'NONE',  ( 0.0000000000000000000, 0.0000000000000000000, -32.35000000000000100 ) ) ;
#108 = COORDINATED_UNIVERSAL_TIME_OFFSET ( 5, 0, .BEHIND. ) ;
#109 = ORIENTED_EDGE ( 'NONE', *, *, #49, .T. ) ;
#110 = CIRCLE ( 'NONE', #228, 35.70000000000000300 ) ;
#111 = AXIS2_PLACEMENT_3D ( 'NONE', #152, #53, #261 ) ;
#112 = APPROVAL_DATE_TIME ( #348, #135 ) ;
#113 = DIRECTION ( 'NONE',  ( 0.5675639625105019000, 0.0000000000000000000, 0.8233293074216280200 ) ) ;
#114 = EDGE_CURVE ( 'NONE', #345, #68, #255, .T. ) ;
#115 = EDGE_CURVE ( 'NONE', #119, #345, #170, .T. ) ;
#116 = CARTESIAN_POINT ( 'NONE',  ( 0.0000000000000000000, 0.0000000000000000000, -32.35000000000000100 ) ) ;
#117 = CALENDAR_DATE ( 2015, 17, 6 ) ;
#118 = DIRECTION ( 'NONE',  ( 1.000000000000000000, 0.0000000000000000000, 0.0000000000000000000 ) ) ;
#119 = VERTEX_POINT ( 'NONE', #235 ) ;
#120 = ORIENTED_EDGE ( 'NONE', *, *, #347, .F. ) ;
#121 = CONICAL_SURFACE ( 'NONE', #220, 12.69999999999999900, 0.6035440628571348000 ) ;
#122 = DIRECTION ( 'NONE',  ( 1.000000000000000000, 0.0000000000000000000, 0.0000000000000000000 ) ) ;
#123 = DIRECTION ( 'NONE',  ( -0.5675639625105019000, 6.950653899998744600E-017, 0.8233293074216280200 ) ) ;
#124 = ADVANCED_FACE ( 'NONE', ( #277 ), #205, .T. ) ;
#125 = ORIENTED_EDGE ( 'NONE', *, *, #286, .T. ) ;
#126 = PRODUCT_DEFINITION ( 'UNKNOWN', '', #304, #233 ) ;
#127 = LOCAL_TIME ( 16, 44, 43.00000000000000000, #108 ) ;
#128 =( NAMED_UNIT ( * ) SI_UNIT ( $, .STERADIAN. ) SOLID_ANGLE_UNIT ( ) );
#129 = DATE_TIME_ROLE ( 'classification_date' ) ;
#130 = COORDINATED_UNIVERSAL_TIME_OFFSET ( 5, 0, .BEHIND. ) ;
#131 = DIRECTION ( 'NONE',  ( -0.0000000000000000000, -0.0000000000000000000, 1.000000000000000000 ) ) ;
#132 = ORIENTED_EDGE ( 'NONE', *, *, #57, .T. ) ;
#133 = CC_DESIGN_PERSON_AND_ORGANIZATION_ASSIGNMENT ( #13, #199, ( #313 ) ) ;
#134 = DIRECTION ( 'NONE',  ( -0.0000000000000000000, -0.0000000000000000000, 1.000000000000000000 ) ) ;
#135 = APPROVAL ( #182, 'UNSPECIFIED' ) ;
#136 = PERSON_AND_ORGANIZATION ( #215, #332 ) ;
#137 = ORIENTED_EDGE ( 'NONE', *, *, #48, .F. ) ;
#138 = CARTESIAN_POINT ( 'NONE',  ( 12.69999999999999900, 0.0000000000000000000, 0.7646519538268142800 ) ) ;
#139 = PERSON_AND_ORGANIZATION_ROLE ( 'creator' ) ;
#140 = DIRECTION ( 'NONE',  ( 0.0000000000000000000, 0.0000000000000000000, -1.000000000000000000 ) ) ;
#141 = APPROVAL_ROLE ( '' ) ;
#142 = DIRECTION ( 'NONE',  ( -1.000000000000000000, 0.0000000000000000000, 0.0000000000000000000 ) ) ;
#143 = CIRCLE ( 'NONE', #276, 12.69999999999999900 ) ;
#144 = CONICAL_SURFACE ( 'NONE', #294, 12.69999999999999900, 0.6035440628571348000 ) ;
#145 = CC_DESIGN_PERSON_AND_ORGANIZATION_ASSIGNMENT ( #218, #336, ( #304 ) ) ;
#146 = PERSON_AND_ORGANIZATION ( #215, #332 ) ;
#147 = FACE_OUTER_BOUND ( 'NONE', #288, .T. ) ;
#148 = EDGE_LOOP ( 'NONE', ( #87, #232, #355, #86, #137 ) ) ;
#149 = CARTESIAN_POINT ( 'NONE',  ( 0.0000000000000000000, 0.0000000000000000000, 3.350000000000000500 ) ) ;
#150 = AXIS2_PLACEMENT_3D ( 'NONE', #290, #250, #142 ) ;
#151 = ADVANCED_FACE ( 'NONE', ( #179 ), #217, .T. ) ;
#152 = CARTESIAN_POINT ( 'NONE',  ( 0.0000000000000000000, 0.0000000000000000000, -1.102330435557817600 ) ) ;
#153 = ORIENTED_EDGE ( 'NONE', *, *, #57, .F. ) ;
#154 = VECTOR ( 'NONE', #265, 1000.000000000000100 ) ;
#155 = CIRCLE ( 'NONE', #237, 12.46722055753610500 ) ;
#156 = EDGE_CURVE ( 'NONE', #9, #339, #268, .T. ) ;
#157 = DIRECTION ( 'NONE',  ( 1.000000000000000000, -0.0000000000000000000, 0.0000000000000000000 ) ) ;
#158 = DIRECTION ( 'NONE',  ( -1.000000000000000000, 0.0000000000000000000, 0.0000000000000000000 ) ) ;
#159 = CARTESIAN_POINT ( 'NONE',  ( 0.0000000000000000000, 0.0000000000000000000, -1.102330435557817600 ) ) ;
#160 = EDGE_LOOP ( 'NONE', ( #287, #50, #296, #20 ) ) ;
#161 = CIRCLE ( 'NONE', #23, 12.46722055753612100 ) ;
#162 = LINE ( 'NONE', #186, #154 ) ;
#163 = APPROVAL ( #346, 'UNSPECIFIED' ) ;
#164 = CARTESIAN_POINT ( 'NONE',  ( 0.0000000000000000000, 0.0000000000000000000, 0.7646519538268142800 ) ) ;
#165 = CYLINDRICAL_SURFACE ( 'NONE', #200, 12.69999999999999900 ) ;
#166 = CARTESIAN_POINT ( 'NONE',  ( 0.0000000000000000000, 0.0000000000000000000, -0.7646519538268350400 ) ) ;
#167 = ORIENTED_EDGE ( 'NONE', *, *, #224, .T. ) ;
#168 = CIRCLE ( 'NONE', #150, 12.46722055753610500 ) ;
#169 = DIRECTION ( 'NONE',  ( 0.5675639625104995600, 6.950653899998716300E-017, -0.8233293074216295700 ) ) ;
#170 = LINE ( 'NONE', #29, #54 ) ;
#171 = DIRECTION ( 'NONE',  ( -0.0000000000000000000, -0.0000000000000000000, 1.000000000000000000 ) ) ;
#172 = PERSON_AND_ORGANIZATION ( #215, #332 ) ;
#173 = VERTEX_POINT ( 'NONE', #8 ) ;
#174 = EDGE_CURVE ( 'NONE', #214, #173, #94, .T. ) ;
#175 = DIRECTION ( 'NONE',  ( -1.000000000000000000, 0.0000000000000000000, 0.0000000000000000000 ) ) ;
#176 = CARTESIAN_POINT ( 'NONE',  ( 0.0000000000000000000, 0.0000000000000000000, -32.35000000000000100 ) ) ;
#177 = AXIS2_PLACEMENT_3D ( 'NONE', #197, #134, #208 ) ;
#178 = CONICAL_SURFACE ( 'NONE', #40, 12.46722055753611300, 0.6035440628571320200 ) ;
#179 = FACE_OUTER_BOUND ( 'NONE', #45, .T. ) ;
#180 = FACE_OUTER_BOUND ( 'NONE', #366, .T. ) ;
#181 = AXIS2_PLACEMENT_3D ( 'NONE', #164, #76, #204 ) ;
#182 = APPROVAL_STATUS ( 'not_yet_approved' ) ;
#183 = APPROVAL_DATE_TIME ( #344, #163 ) ;
#184 = CIRCLE ( 'NONE', #240, 35.70000000000000300 ) ;
#185 = CIRCLE ( 'NONE', #71, 12.46722055753612100 ) ;
#186 = CARTESIAN_POINT ( 'NONE',  ( -12.46722055753611300, 0.0000000000000000000, 1.102330435557831400 ) ) ;
#187 = CALENDAR_DATE ( 2015, 17, 6 ) ;
#188 = DIRECTION ( 'NONE',  ( 1.000000000000000000, 0.0000000000000000000, 0.0000000000000000000 ) ) ;
#189 = CONICAL_SURFACE ( 'NONE', #17, 12.46722055753611300, 0.6035440628571320200 ) ;
#190 = AXIS2_PLACEMENT_3D ( 'NONE', #159, #140, #88 ) ;
#191 = CARTESIAN_POINT ( 'NONE',  ( 0.0000000000000000000, 0.0000000000000000000, 32.35000000000000100 ) ) ;
#192 = AXIS2_PLACEMENT_3D ( 'NONE', #149, #246, #307 ) ;
#193 = LOCAL_TIME ( 16, 44, 43.00000000000000000, #201 ) ;
#194 = ORIENTED_EDGE ( 'NONE', *, *, #85, .T. ) ;
#195 = ORIENTED_EDGE ( 'NONE', *, *, #174, .F. ) ;
#196 = CARTESIAN_POINT ( 'NONE',  ( 0.0000000000000000000, 12.46722055753611100, 1.102330435557831400 ) ) ;
#197 = CARTESIAN_POINT ( 'NONE',  ( 0.0000000000000000000, 0.0000000000000000000, 1.102330435557831400 ) ) ;
#198 = CIRCLE ( 'NONE', #190, 12.46722055753612100 ) ;
#199 = PERSON_AND_ORGANIZATION_ROLE ( 'design_owner' ) ;
#200 = AXIS2_PLACEMENT_3D ( 'NONE', #322, #56, #317 ) ;
#201 = COORDINATED_UNIVERSAL_TIME_OFFSET ( 5, 0, .BEHIND. ) ;
#202 = CARTESIAN_POINT ( 'NONE',  ( -12.46722055753612100, 1.541047804961103900E-015, -1.102330435557817600 ) ) ;
#203 = DATE_AND_TIME ( #77, #18 ) ;
#204 = DIRECTION ( 'NONE',  ( -1.000000000000000000, 0.0000000000000000000, 0.0000000000000000000 ) ) ;
#205 = SPHERICAL_SURFACE ( 'NONE', #263, 35.70000000000000300 ) ;
#206 = PERSON_AND_ORGANIZATION ( #215, #332 ) ;
#207 = EDGE_LOOP ( 'NONE', ( #358, #266, #82, #349, #367 ) ) ;
#208 = DIRECTION ( 'NONE',  ( -1.000000000000000000, 0.0000000000000000000, 0.0000000000000000000 ) ) ;
#209 = APPROVAL_ROLE ( '' ) ;
#210 = SECURITY_CLASSIFICATION ( '', '', #271 ) ;
#211 = APPROVAL_PERSON_ORGANIZATION ( #136, #135, #364 ) ;
#212 = CIRCLE ( 'NONE', #281, 12.69999999999999900 ) ;
#213 = AXIS2_PLACEMENT_3D ( 'NONE', #107, #175, #90 ) ;
#214 = VERTEX_POINT ( 'NONE', #298 ) ;
#215 = PERSON ( 'UNSPECIFIED', 'UNSPECIFIED', 'UNSPECIFIED', ('UNSPECIFIED'), ('UNSPECIFIED'), ('UNSPECIFIED') ) ;
#216 = DIRECTION ( 'NONE',  ( -1.000000000000000000, 0.0000000000000000000, 0.0000000000000000000 ) ) ;
#217 = CYLINDRICAL_SURFACE ( 'NONE', #192, 12.69999999999999900 ) ;
#218 = PERSON_AND_ORGANIZATION ( #215, #332 ) ;
#219 = ORIENTED_EDGE ( 'NONE', *, *, #292, .F. ) ;
#220 = AXIS2_PLACEMENT_3D ( 'NONE', #75, #25, #229 ) ;
#221 = ORIENTED_EDGE ( 'NONE', *, *, #306, .F. ) ;
#222 = CARTESIAN_POINT ( 'NONE',  ( 0.0000000000000000000, 0.0000000000000000000, -0.7646519538268350400 ) ) ;
#223 = EDGE_CURVE ( 'NONE', #270, #119, #59, .T. ) ;
#224 = EDGE_CURVE ( 'NONE', #335, #103, #37, .T. ) ;
#225 = ADVANCED_FACE ( 'NONE', ( #239 ), #121, .T. ) ;
#226 = ADVANCED_FACE ( 'NONE', ( #64 ), #89, .T. ) ;
#227 = SPHERICAL_SURFACE ( 'NONE', #213, 35.70000000000000300 ) ;
#228 = AXIS2_PLACEMENT_3D ( 'NONE', #262, #32, #311 ) ;
#229 = DIRECTION ( 'NONE',  ( 1.000000000000000000, 0.0000000000000000000, 0.0000000000000000000 ) ) ;
#230 = EDGE_CURVE ( 'NONE', #335, #345, #72, .T. ) ;
#231 = ORIENTED_EDGE ( 'NONE', *, *, #292, .T. ) ;
#232 = ORIENTED_EDGE ( 'NONE', *, *, #156, .T. ) ;
#233 = DESIGN_CONTEXT ( 'detailed design', #238, 'design' ) ;
#234 = CIRCLE ( 'NONE', #84, 35.69999999999999600 ) ;
#235 = CARTESIAN_POINT ( 'NONE',  ( 12.69999999999999900, 0.0000000000000000000, -0.7646519538268350400 ) ) ;
#236 = EDGE_CURVE ( 'NONE', #62, #335, #21, .T. ) ;
#237 = AXIS2_PLACEMENT_3D ( 'NONE', #6, #131, #337 ) ;
#238 = APPLICATION_CONTEXT ( 'configuration controlled 3d designs of mechanical parts and assemblies' ) ;
#239 = FACE_OUTER_BOUND ( 'NONE', #148, .T. ) ;
#240 = AXIS2_PLACEMENT_3D ( 'NONE', #191, #188, #341 ) ;
#241 = DATE_AND_TIME ( #273, #320 ) ;
#242 = DIRECTION ( 'NONE',  ( 0.0000000000000000000, 0.0000000000000000000, -1.000000000000000000 ) ) ;
#243 = ORIENTED_EDGE ( 'NONE', *, *, #223, .T. ) ;
#244 = ORIENTED_EDGE ( 'NONE', *, *, #236, .T. ) ;
#245 = CC_DESIGN_PERSON_AND_ORGANIZATION_ASSIGNMENT ( #24, #139, ( #126 ) ) ;
#246 = DIRECTION ( 'NONE',  ( -0.0000000000000000000, -0.0000000000000000000, 1.000000000000000000 ) ) ;
#247 = CARTESIAN_POINT ( 'NONE',  ( 12.69999999999999900, 0.0000000000000000000, -0.7646519538268350400 ) ) ;
#248 = ORIENTED_EDGE ( 'NONE', *, *, #39, .T. ) ;
#249 = CARTESIAN_POINT ( 'NONE',  ( 0.0000000000000000000, 0.0000000000000000000, 0.0000000000000000000 ) ) ;
#250 = DIRECTION ( 'NONE',  ( -0.0000000000000000000, -0.0000000000000000000, 1.000000000000000000 ) ) ;
#251 = SPHERICAL_SURFACE ( 'NONE', #318, 35.70000000000000300 ) ;
#252 = CLOSED_SHELL ( 'NONE', ( #280, #225, #226, #151, #3, #124, #66, #95, #63, #278 ) ) ;
#253 = DIRECTION ( 'NONE',  ( -0.0000000000000000000, -0.0000000000000000000, 1.000000000000000000 ) ) ;
#254 = DIRECTION ( 'NONE',  ( -1.000000000000000000, 1.224646799147353200E-016, 0.0000000000000000000 ) ) ;
#255 = CIRCLE ( 'NONE', #181, 12.69999999999999900 ) ;
#256 = DIRECTION ( 'NONE',  ( 0.0000000000000000000, 0.0000000000000000000, -1.000000000000000000 ) ) ;
#257 = ORIENTED_EDGE ( 'NONE', *, *, #48, .T. ) ;
#258 = ORIENTED_EDGE ( 'NONE', *, *, #156, .F. ) ;
#259 = CC_DESIGN_PERSON_AND_ORGANIZATION_ASSIGNMENT ( #146, #100, ( #210 ) ) ;
#260 = DIRECTION ( 'NONE',  ( 1.000000000000000000, 0.0000000000000000000, 0.0000000000000000000 ) ) ;
#261 = DIRECTION ( 'NONE',  ( 1.000000000000000000, 0.0000000000000000000, 0.0000000000000000000 ) ) ;
#262 = CARTESIAN_POINT ( 'NONE',  ( 0.0000000000000000000, 0.0000000000000000000, -32.35000000000000100 ) ) ;
#263 = AXIS2_PLACEMENT_3D ( 'NONE', #176, #269, #38 ) ;
#264 = FACE_OUTER_BOUND ( 'NONE', #160, .T. ) ;
#265 = DIRECTION ( 'NONE',  ( -0.5675639625104995600, 0.0000000000000000000, -0.8233293074216295700 ) ) ;
#266 = ORIENTED_EDGE ( 'NONE', *, *, #236, .F. ) ;
#267 = CARTESIAN_POINT ( 'NONE',  ( 0.0000000000000000000, 0.0000000000000000000, 32.35000000000000100 ) ) ;
#268 = LINE ( 'NONE', #74, #319 ) ;
#269 = DIRECTION ( 'NONE',  ( -1.000000000000000000, 0.0000000000000000000, 0.0000000000000000000 ) ) ;
#270 = VERTEX_POINT ( 'NONE', #289 ) ;
#271 = SECURITY_CLASSIFICATION_LEVEL ( 'unclassified' ) ;
#272 = ORIENTED_EDGE ( 'NONE', *, *, #115, .F. ) ;
#273 = CALENDAR_DATE ( 2015, 17, 6 ) ;
#274 = DIRECTION ( 'NONE',  ( 0.0000000000000000000, 0.0000000000000000000, -1.000000000000000000 ) ) ;
#275 = ORIENTED_EDGE ( 'NONE', *, *, #286, .F. ) ;
#276 = AXIS2_PLACEMENT_3D ( 'NONE', #166, #253, #260 ) ;
#277 = FACE_OUTER_BOUND ( 'NONE', #22, .T. ) ;
#278 = ADVANCED_FACE ( 'NONE', ( #105 ), #178, .T. ) ;
#279 = AXIS2_PLACEMENT_3D ( 'NONE', #249, #60, #359 ) ;
#280 = ADVANCED_FACE ( 'NONE', ( #147 ), #189, .T. ) ;
#281 = AXIS2_PLACEMENT_3D ( 'NONE', #222, #303, #302 ) ;
#282 = EDGE_CURVE ( 'NONE', #102, #68, #162, .T. ) ;
#283 = PRODUCT_DEFINITION_SHAPE ( 'NONE', 'NONE',  #126 ) ;
#284 = CARTESIAN_POINT ( 'NONE',  ( -1.526794175005068000E-015, -12.46722055753611100, 1.102330435557831400 ) ) ;
#285 = EDGE_LOOP ( 'NONE', ( #125, #194, #14, #153 ) ) ;
#286 = EDGE_CURVE ( 'NONE', #103, #102, #168, .T. ) ;
#287 = ORIENTED_EDGE ( 'NONE', *, *, #39, .F. ) ;
#288 = EDGE_LOOP ( 'NONE', ( #360, #31, #79, #19, #275 ) ) ;
#289 = CARTESIAN_POINT ( 'NONE',  ( 12.46722055753612100, 0.0000000000000000000, -1.102330435557817600 ) ) ;
#290 = CARTESIAN_POINT ( 'NONE',  ( 0.0000000000000000000, 0.0000000000000000000, 1.102330435557831400 ) ) ;
#291 = APPLICATION_PROTOCOL_DEFINITION ( 'international standard', 'config_control_design', 1994, #33 ) ;
#292 = EDGE_CURVE ( 'NONE', #214, #350, #184, .T. ) ;
#293 = DIRECTION ( 'NONE',  ( -0.0000000000000000000, -0.0000000000000000000, 1.000000000000000000 ) ) ;
#294 = AXIS2_PLACEMENT_3D ( 'NONE', #106, #51, #118 ) ;
#295 = APPROVAL_DATE_TIME ( #241, #308 ) ;
#296 = ORIENTED_EDGE ( 'NONE', *, *, #115, .T. ) ;
#297 = DIRECTION ( 'NONE',  ( -1.000000000000000000, 0.0000000000000000000, 0.0000000000000000000 ) ) ;
#298 = CARTESIAN_POINT ( 'NONE',  ( 0.0000000000000000000, 2.185994536478025800E-015, -3.349999999999998800 ) ) ;
#299 = EDGE_LOOP ( 'NONE', ( #195, #231, #257, #98 ) ) ;
#300 = CARTESIAN_POINT ( 'NONE',  ( 0.0000000000000000000, 0.0000000000000000000, 0.7646519538268142800 ) ) ;
#301 = LINE ( 'NONE', #34, #327 ) ;
#302 = DIRECTION ( 'NONE',  ( 1.000000000000000000, 0.0000000000000000000, 0.0000000000000000000 ) ) ;
#303 = DIRECTION ( 'NONE',  ( -0.0000000000000000000, -0.0000000000000000000, 1.000000000000000000 ) ) ;
#304 = PRODUCT_DEFINITION_FORMATION_WITH_SPECIFIED_SOURCE ( 'ANY', '', #313, .NOT_KNOWN. ) ;
#305 = MECHANICAL_CONTEXT ( 'NONE', #33, 'mechanical' ) ;
#306 = EDGE_CURVE ( 'NONE', #173, #9, #161, .T. ) ;
#307 = DIRECTION ( 'NONE',  ( 1.000000000000000000, 0.0000000000000000000, 0.0000000000000000000 ) ) ;
#308 = APPROVAL ( #1, 'UNSPECIFIED' ) ;
#309 = APPLICATION_PROTOCOL_DEFINITION ( 'international standard', 'config_control_design', 1994, #238 ) ;
#310 =( GEOMETRIC_REPRESENTATION_CONTEXT ( 3 ) GLOBAL_UNCERTAINTY_ASSIGNED_CONTEXT ( ( #52 ) ) GLOBAL_UNIT_ASSIGNED_CONTEXT ( ( #340, #28, #128 ) ) REPRESENTATION_CONTEXT ( 'NONE', 'WORKASPACE' ) );
#311 = DIRECTION ( 'NONE',  ( -1.224646799147353200E-016, -1.000000000000000000, 0.0000000000000000000 ) ) ;
#312 = PERSON_AND_ORGANIZATION ( #215, #332 ) ;
#313 = PRODUCT ( '4318-E0W', '4318-E0W', '', ( #305 ) ) ;
#314 = ADVANCED_BREP_SHAPE_REPRESENTATION ( '4318-E0W', ( #70, #279 ), #310 ) ;
#315 = CC_DESIGN_APPROVAL ( #308, ( #304 ) ) ;
#316 = APPROVAL_PERSON_ORGANIZATION ( #312, #308, #209 ) ;
#317 = DIRECTION ( 'NONE',  ( 1.000000000000000000, 0.0000000000000000000, 0.0000000000000000000 ) ) ;
#318 = AXIS2_PLACEMENT_3D ( 'NONE', #26, #158, #58 ) ;
#319 = VECTOR ( 'NONE', #123, 1000.000000000000100 ) ;
#320 = LOCAL_TIME ( 16, 44, 43.00000000000000000, #130 ) ;
#321 = CC_DESIGN_APPROVAL ( #135, ( #126 ) ) ;
#322 = CARTESIAN_POINT ( 'NONE',  ( 0.0000000000000000000, 0.0000000000000000000, 3.350000000000000500 ) ) ;
#323 = APPROVAL_PERSON_ORGANIZATION ( #206, #163, #141 ) ;
#324 = DATE_TIME_ROLE ( 'creation_date' ) ;
#325 = ORIENTED_EDGE ( 'NONE', *, *, #91, .F. ) ;
#326 = CARTESIAN_POINT ( 'NONE',  ( 0.0000000000000000000, 0.0000000000000000000, 1.102330435557831400 ) ) ;
#327 = VECTOR ( 'NONE', #171, 1000.000000000000000 ) ;
#328 = CARTESIAN_POINT ( 'NONE',  ( -12.46722055753610500, 0.0000000000000000000, 1.102330435557831400 ) ) ;
#329 = CARTESIAN_POINT ( 'NONE',  ( 0.0000000000000000000, 0.0000000000000000000, 1.102330435557831400 ) ) ;
#330 = DIRECTION ( 'NONE',  ( 0.0000000000000000000, 0.0000000000000000000, -1.000000000000000000 ) ) ;
#331 = AXIS2_PLACEMENT_3D ( 'NONE', #353, #293, #361 ) ;
#332 = ORGANIZATION ( 'UNSPECIFIED', 'UNSPECIFIED', '' ) ;
#333 = FACE_OUTER_BOUND ( 'NONE', #299, .T. ) ;
#334 = CARTESIAN_POINT ( 'NONE',  ( -12.69999999999999900, 1.555301434917138400E-015, -0.7646519538268350400 ) ) ;
#335 = VERTEX_POINT ( 'NONE', #16 ) ;
#336 = PERSON_AND_ORGANIZATION_ROLE ( 'design_supplier' ) ;
#337 = DIRECTION ( 'NONE',  ( -1.000000000000000000, 0.0000000000000000000, 0.0000000000000000000 ) ) ;
#338 = COORDINATED_UNIVERSAL_TIME_OFFSET ( 5, 0, .BEHIND. ) ;
#339 = VERTEX_POINT ( 'NONE', #334 ) ;
#340 =( LENGTH_UNIT ( ) NAMED_UNIT ( * ) SI_UNIT ( .MILLI., .METRE. ) );
#341 = DIRECTION ( 'NONE',  ( 0.0000000000000000000, 0.0000000000000000000, -1.000000000000000000 ) ) ;
#342 = CC_DESIGN_PERSON_AND_ORGANIZATION_ASSIGNMENT ( #172, #15, ( #304 ) ) ;
#343 = CARTESIAN_POINT ( 'NONE',  ( 12.46722055753611300, 1.526794175005068000E-015, 1.102330435557831400 ) ) ;
#344 = DATE_AND_TIME ( #187, #193 ) ;
#345 = VERTEX_POINT ( 'NONE', #138 ) ;
#346 = APPROVAL_STATUS ( 'not_yet_approved' ) ;
#347 = EDGE_CURVE ( 'NONE', #339, #119, #212, .T. ) ;
#348 = DATE_AND_TIME ( #354, #127 ) ;
#349 = ORIENTED_EDGE ( 'NONE', *, *, #282, .T. ) ;
#350 = VERTEX_POINT ( 'NONE', #365 ) ;
#351 = CC_DESIGN_DATE_AND_TIME_ASSIGNMENT ( #97, #324, ( #126 ) ) ;
#352 = CARTESIAN_POINT ( 'NONE',  ( -12.69999999999999900, 1.555301434917138400E-015, 0.7646519538268142800 ) ) ;
#353 = CARTESIAN_POINT ( 'NONE',  ( 0.0000000000000000000, 0.0000000000000000000, 1.102330435557831400 ) ) ;
#354 = CALENDAR_DATE ( 2015, 17, 6 ) ;
#355 = ORIENTED_EDGE ( 'NONE', *, *, #356, .F. ) ;
#356 = EDGE_CURVE ( 'NONE', #119, #339, #143, .T. ) ;
#357 = AXIS2_PLACEMENT_3D ( 'NONE', #300, #242, #41 ) ;
#358 = ORIENTED_EDGE ( 'NONE', *, *, #230, .F. ) ;
#359 = DIRECTION ( 'NONE',  ( 1.000000000000000000, 0.0000000000000000000, 0.0000000000000000000 ) ) ;
#360 = ORIENTED_EDGE ( 'NONE', *, *, #224, .F. ) ;
#361 = DIRECTION ( 'NONE',  ( -1.000000000000000000, 0.0000000000000000000, 0.0000000000000000000 ) ) ;
#362 = SHAPE_DEFINITION_REPRESENTATION ( #283, #314 ) ;
#363 = CC_DESIGN_DATE_AND_TIME_ASSIGNMENT ( #203, #129, ( #210 ) ) ;
#364 = APPROVAL_ROLE ( '' ) ;
#365 = CARTESIAN_POINT ( 'NONE',  ( 0.0000000000000000000, 12.46722055753613400, -1.102330435557821000 ) ) ;
#366 = EDGE_LOOP ( 'NONE', ( #258, #221, #47, #243, #120 ) ) ;
#367 = ORIENTED_EDGE ( 'NONE', *, *, #114, .F. ) ;
ENDSEC;
END-ISO-10303-21;
