ISO-10303-21;
HEADER;
FILE_DESCRIPTION (( 'STEP AP203' ),
    '1' );
FILE_NAME ('TTN041008-E0W.STEP',
    '2019-07-16T13:04:49',
    ( '' ),
    ( '' ),
    'SwSTEP 2.0',
    'SolidWorks 2018',
    '' );
FILE_SCHEMA (( 'CONFIG_CONTROL_DESIGN' ));
ENDSEC;

DATA;
#1 = SPHERICAL_SURFACE ( 'NONE', #200, 65.20000000000000284 ) ;
#2 = DATE_AND_TIME ( #228, #155 ) ;
#3 = FACE_OUTER_BOUND ( 'NONE', #15, .T. ) ;
#4 = DESIGN_CONTEXT ( 'detailed design', #40, 'design' ) ;
#5 = CARTESIAN_POINT ( 'NONE',  ( 0.0000000000000000000, 0.0000000000000000000, 0.0000000000000000000 ) ) ;
#6 = APPROVAL ( #54, 'UNSPECIFIED' ) ;
#7 = ORIENTED_EDGE ( 'NONE', *, *, #176, .T. ) ;
#8 = DIRECTION ( 'NONE',  ( 0.0000000000000000000, 0.0000000000000000000, -1.000000000000000000 ) ) ;
#9 =( LENGTH_UNIT ( ) NAMED_UNIT ( * ) SI_UNIT ( .MILLI., .METRE. ) );
#10 = CARTESIAN_POINT ( 'NONE',  ( 6.221205739668553730E-15, 0.2499999999999863443, 50.79999999999999716 ) ) ;
#11 = APPROVAL_PERSON_ORGANIZATION ( #146, #6, #224 ) ;
#12 = VECTOR ( 'NONE', #239, 1000.000000000000000 ) ;
#13 = DIRECTION ( 'NONE',  ( 0.0000000000000000000, 0.0000000000000000000, -1.000000000000000000 ) ) ;
#14 = ADVANCED_FACE ( 'NONE', ( #216 ), #160, .T. ) ;
#15 = EDGE_LOOP ( 'NONE', ( #197, #203, #199, #80 ) ) ;
#16 = AXIS2_PLACEMENT_3D ( 'NONE', #140, #86, #8 ) ;
#17 = ADVANCED_FACE ( 'NONE', ( #223 ), #75, .T. ) ;
#18 = CALENDAR_DATE ( 2019, 16, 7 ) ;
#19 = ADVANCED_FACE ( 'NONE', ( #172 ), #147, .T. ) ;
#20 = CC_DESIGN_APPROVAL ( #6, ( #198 ) ) ;
#21 = COORDINATED_UNIVERSAL_TIME_OFFSET ( 5, 0, .BEHIND. ) ;
#22 = FACE_OUTER_BOUND ( 'NONE', #58, .T. ) ;
#23 = EDGE_LOOP ( 'NONE', ( #44, #7, #173 ) ) ;
#24 = LOCAL_TIME ( 9, 4, 49.00000000000000000, #135 ) ;
#25 = ORIENTED_EDGE ( 'NONE', *, *, #56, .T. ) ;
#26 = PLANE ( 'NONE',  #106 ) ;
#27 = ORIENTED_EDGE ( 'NONE', *, *, #87, .F. ) ;
#28 = CC_DESIGN_APPROVAL ( #65, ( #251 ) ) ;
#29 = DIRECTION ( 'NONE',  ( 0.0000000000000000000, 1.000000000000000000, 0.0000000000000000000 ) ) ;
#30 = CARTESIAN_POINT ( 'NONE',  ( 6.190589569689869943E-15, 0.0000000000000000000, -50.54999999999999716 ) ) ;
#31 = CARTESIAN_POINT ( 'NONE',  ( 0.0000000000000000000, 29.99667945333359143, -3.992348565220371983E-15 ) ) ;
#32 = DIRECTION ( 'NONE',  ( 0.0000000000000000000, 0.0000000000000000000, -1.000000000000000000 ) ) ;
#33 = DIRECTION ( 'NONE',  ( -1.224646799147353207E-16, 0.0000000000000000000, -1.000000000000000000 ) ) ;
#34 = PERSON_AND_ORGANIZATION ( #238, #84 ) ;
#35 = LINE ( 'NONE', #30, #122 ) ;
#36 = PERSON_AND_ORGANIZATION_ROLE ( 'creator' ) ;
#37 = CLOSED_SHELL ( 'NONE', ( #151, #14, #78, #133, #17, #41, #19 ) ) ;
#38 = DATE_AND_TIME ( #81, #66 ) ;
#39 = EDGE_LOOP ( 'NONE', ( #48, #55, #62, #210 ) ) ;
#40 = APPLICATION_CONTEXT ( 'configuration controlled 3d designs of mechanical parts and assemblies' ) ;
#41 = ADVANCED_FACE ( 'NONE', ( #179 ), #26, .T. ) ;
#42 = LOCAL_TIME ( 9, 4, 49.00000000000000000, #178 ) ;
#43 = ORIENTED_EDGE ( 'NONE', *, *, #188, .T. ) ;
#44 = ORIENTED_EDGE ( 'NONE', *, *, #188, .F. ) ;
#45 = ORIENTED_EDGE ( 'NONE', *, *, #47, .T. ) ;
#46 = CARTESIAN_POINT ( 'NONE',  ( 0.0000000000000000000, 0.2499999999999863443, 0.0000000000000000000 ) ) ;
#47 = EDGE_CURVE ( 'NONE', #195, #112, #245, .T. ) ;
#48 = ORIENTED_EDGE ( 'NONE', *, *, #125, .F. ) ;
#49 = CARTESIAN_POINT ( 'NONE',  ( 6.205897654679211837E-15, 0.0000000000000000000, -50.54999999999999716 ) ) ;
#50 = CARTESIAN_POINT ( 'NONE',  ( 6.221205739668553730E-15, 5.667206731556961863, 50.79999999999999716 ) ) ;
#51 = PERSON_AND_ORGANIZATION ( #238, #84 ) ;
#52 = CARTESIAN_POINT ( 'NONE',  ( 6.221205739668553730E-15, 0.0000000000000000000, 50.79999999999999716 ) ) ;
#53 = CIRCLE ( 'NONE', #115, 65.20000000000000284 ) ;
#54 = APPROVAL_STATUS ( 'not_yet_approved' ) ;
#55 = ORIENTED_EDGE ( 'NONE', *, *, #98, .F. ) ;
#56 = EDGE_CURVE ( 'NONE', #93, #215, #99, .T. ) ;
#57 = APPLICATION_PROTOCOL_DEFINITION ( 'international standard', 'config_control_design', 1994, #40 ) ;
#58 = EDGE_LOOP ( 'NONE', ( #100, #43, #236 ) ) ;
#59 = ORIENTED_EDGE ( 'NONE', *, *, #87, .T. ) ;
#60 = EDGE_CURVE ( 'NONE', #163, #67, #184, .T. ) ;
#61 = PERSON_AND_ORGANIZATION ( #238, #84 ) ;
#62 = ORIENTED_EDGE ( 'NONE', *, *, #241, .T. ) ;
#63 = UNCERTAINTY_MEASURE_WITH_UNIT (LENGTH_MEASURE( 1.000000000000000082E-05 ), #9, 'distance_accuracy_value', 'NONE');
#64 = DIRECTION ( 'NONE',  ( 1.000000000000000000, 0.0000000000000000000, 0.0000000000000000000 ) ) ;
#65 = APPROVAL ( #154, 'UNSPECIFIED' ) ;
#66 = LOCAL_TIME ( 9, 4, 49.00000000000000000, #159 ) ;
#67 = VERTEX_POINT ( 'NONE', #162 ) ;
#68 = CARTESIAN_POINT ( 'NONE',  ( 0.0000000000000000000, -35.20332054666641852, 0.0000000000000000000 ) ) ;
#69 = CC_DESIGN_APPROVAL ( #158, ( #90 ) ) ;
#70 = CARTESIAN_POINT ( 'NONE',  ( 0.0000000000000000000, -35.20332054666641852, 0.0000000000000000000 ) ) ;
#71 = CARTESIAN_POINT ( 'NONE',  ( 0.0000000000000000000, 0.2499999999999863443, 0.0000000000000000000 ) ) ;
#72 = CARTESIAN_POINT ( 'NONE',  ( 0.0000000000000000000, 0.0000000000000000000, 0.0000000000000000000 ) ) ;
#73 =( NAMED_UNIT ( * ) PLANE_ANGLE_UNIT ( ) SI_UNIT ( $, .RADIAN. ) );
#74 = APPROVAL_DATE_TIME ( #38, #158 ) ;
#75 = CYLINDRICAL_SURFACE ( 'NONE', #153, 50.79999999999999716 ) ;
#76 = MECHANICAL_CONTEXT ( 'NONE', #221, 'mechanical' ) ;
#77 = ORIENTED_EDGE ( 'NONE', *, *, #211, .T. ) ;
#78 = ADVANCED_FACE ( 'NONE', ( #22 ), #1, .T. ) ;
#79 = ORIENTED_EDGE ( 'NONE', *, *, #118, .T. ) ;
#80 = ORIENTED_EDGE ( 'NONE', *, *, #241, .F. ) ;
#81 = CALENDAR_DATE ( 2019, 16, 7 ) ;
#82 = EDGE_CURVE ( 'NONE', #215, #93, #157, .T. ) ;
#83 = DATE_AND_TIME ( #230, #24 ) ;
#84 = ORGANIZATION ( 'UNSPECIFIED', 'UNSPECIFIED', '' ) ;
#85 = CC_DESIGN_DATE_AND_TIME_ASSIGNMENT ( #222, #149, ( #90 ) ) ;
#86 = DIRECTION ( 'NONE',  ( -0.0000000000000000000, -1.000000000000000000, -0.0000000000000000000 ) ) ;
#87 = EDGE_CURVE ( 'NONE', #112, #93, #141, .T. ) ;
#88 = ORIENTED_EDGE ( 'NONE', *, *, #98, .T. ) ;
#89 = DIRECTION ( 'NONE',  ( 0.0000000000000000000, 0.0000000000000000000, -1.000000000000000000 ) ) ;
#90 = PRODUCT_DEFINITION ( 'UNKNOWN', '', #198, #4 ) ;
#91 = DIRECTION ( 'NONE',  ( -0.0000000000000000000, -1.000000000000000000, -0.0000000000000000000 ) ) ;
#92 = CC_DESIGN_PERSON_AND_ORGANIZATION_ASSIGNMENT ( #171, #36, ( #90 ) ) ;
#93 = VERTEX_POINT ( 'NONE', #168 ) ;
#94 = EDGE_LOOP ( 'NONE', ( #130, #45, #59, #25 ) ) ;
#95 = ADVANCED_BREP_SHAPE_REPRESENTATION ( 'TTN041008-E0W', ( #249, #250 ), #117 ) ;
#96 = FACE_OUTER_BOUND ( 'NONE', #23, .T. ) ;
#97 = CC_DESIGN_PERSON_AND_ORGANIZATION_ASSIGNMENT ( #34, #208, ( #198 ) ) ;
#98 = EDGE_CURVE ( 'NONE', #67, #163, #139, .T. ) ;
#99 = CIRCLE ( 'NONE', #134, 50.79999999999999716 ) ;
#100 = ORIENTED_EDGE ( 'NONE', *, *, #176, .F. ) ;
#101 = LINE ( 'NONE', #52, #12 ) ;
#102 = DIRECTION ( 'NONE',  ( 0.0000000000000000000, 0.0000000000000000000, 1.000000000000000000 ) ) ;
#103 = CIRCLE ( 'NONE', #232, 50.79999999999999716 ) ;
#104 = CARTESIAN_POINT ( 'NONE',  ( 0.0000000000000000000, -35.20332054666641852, 0.0000000000000000000 ) ) ;
#105 = CARTESIAN_POINT ( 'NONE',  ( 0.0000000000000000000, 5.667206731556961863, -50.79999999999999716 ) ) ;
#106 = AXIS2_PLACEMENT_3D ( 'NONE', #119, #182, #124 ) ;
#107 = DIRECTION ( 'NONE',  ( -0.0000000000000000000, -1.000000000000000000, -0.0000000000000000000 ) ) ;
#108 = CALENDAR_DATE ( 2019, 16, 7 ) ;
#109 = ORIENTED_EDGE ( 'NONE', *, *, #82, .T. ) ;
#110 = SECURITY_CLASSIFICATION_LEVEL ( 'unclassified' ) ;
#111 = CC_DESIGN_PERSON_AND_ORGANIZATION_ASSIGNMENT ( #51, #113, ( #240 ) ) ;
#112 = VERTEX_POINT ( 'NONE', #105 ) ;
#113 = PERSON_AND_ORGANIZATION_ROLE ( 'design_owner' ) ;
#114 = APPROVAL_DATE_TIME ( #2, #65 ) ;
#115 = AXIS2_PLACEMENT_3D ( 'NONE', #104, #217, #189 ) ;
#116 = PERSON_AND_ORGANIZATION ( #238, #84 ) ;
#117 =( GEOMETRIC_REPRESENTATION_CONTEXT ( 3 ) GLOBAL_UNCERTAINTY_ASSIGNED_CONTEXT ( ( #63 ) ) GLOBAL_UNIT_ASSIGNED_CONTEXT ( ( #9, #73, #187 ) ) REPRESENTATION_CONTEXT ( 'NONE', 'WORKASPACE' ) );
#118 = EDGE_CURVE ( 'NONE', #112, #195, #103, .T. ) ;
#119 = CARTESIAN_POINT ( 'NONE',  ( 0.0000000000000000000, 0.0000000000000000000, 0.0000000000000000000 ) ) ;
#120 = DIRECTION ( 'NONE',  ( -0.0000000000000000000, -1.000000000000000000, -0.0000000000000000000 ) ) ;
#121 = DIRECTION ( 'NONE',  ( 0.0000000000000000000, 0.0000000000000000000, -1.000000000000000000 ) ) ;
#122 = VECTOR ( 'NONE', #192, 1000.000000000000000 ) ;
#123 = CC_DESIGN_SECURITY_CLASSIFICATION ( #251, ( #198 ) ) ;
#124 = DIRECTION ( 'NONE',  ( 0.0000000000000000000, 0.0000000000000000000, -1.000000000000000000 ) ) ;
#125 = EDGE_CURVE ( 'NONE', #163, #93, #35, .T. ) ;
#126 = CARTESIAN_POINT ( 'NONE',  ( 0.0000000000000000000, 0.0000000000000000000, 0.0000000000000000000 ) ) ;
#127 = CARTESIAN_POINT ( 'NONE',  ( 0.0000000000000000000, -35.20332054666641852, 0.0000000000000000000 ) ) ;
#128 = DIRECTION ( 'NONE',  ( 0.0000000000000000000, 0.7071067811865279218, 0.7071067811865671127 ) ) ;
#129 = CC_DESIGN_DATE_AND_TIME_ASSIGNMENT ( #83, #225, ( #251 ) ) ;
#130 = ORIENTED_EDGE ( 'NONE', *, *, #211, .F. ) ;
#131 = ORIENTED_EDGE ( 'NONE', *, *, #60, .T. ) ;
#132 = APPROVAL_ROLE ( '' ) ;
#133 = ADVANCED_FACE ( 'NONE', ( #96 ), #248, .T. ) ;
#134 = AXIS2_PLACEMENT_3D ( 'NONE', #46, #185, #237 ) ;
#135 = COORDINATED_UNIVERSAL_TIME_OFFSET ( 5, 0, .BEHIND. ) ;
#136 = LINE ( 'NONE', #169, #204 ) ;
#137 = DIRECTION ( 'NONE',  ( 0.0000000000000000000, 0.0000000000000000000, -1.000000000000000000 ) ) ;
#138 = PRODUCT_RELATED_PRODUCT_CATEGORY ( 'detail', '', ( #240 ) ) ;
#139 = CIRCLE ( 'NONE', #220, 50.54999999999999716 ) ;
#140 = CARTESIAN_POINT ( 'NONE',  ( 0.0000000000000000000, 5.667206731556961863, 0.0000000000000000000 ) ) ;
#141 = LINE ( 'NONE', #219, #152 ) ;
#142 = DIRECTION ( 'NONE',  ( 0.0000000000000000000, 1.000000000000000000, 0.0000000000000000000 ) ) ;
#143 = DIRECTION ( 'NONE',  ( -0.0000000000000000000, -1.000000000000000000, -0.0000000000000000000 ) ) ;
#144 = AXIS2_PLACEMENT_3D ( 'NONE', #71, #142, #145 ) ;
#145 = DIRECTION ( 'NONE',  ( 0.0000000000000000000, 0.0000000000000000000, -1.000000000000000000 ) ) ;
#146 = PERSON_AND_ORGANIZATION ( #238, #84 ) ;
#147 = CONICAL_SURFACE ( 'NONE', #164, 50.54999999999999716, 0.7853981633974760346 ) ;
#148 = DIRECTION ( 'NONE',  ( 0.0000000000000000000, 0.0000000000000000000, -1.000000000000000000 ) ) ;
#149 = DATE_TIME_ROLE ( 'creation_date' ) ;
#150 = CC_DESIGN_PERSON_AND_ORGANIZATION_ASSIGNMENT ( #116, #175, ( #198 ) ) ;
#151 = ADVANCED_FACE ( 'NONE', ( #3 ), #194, .T. ) ;
#152 = VECTOR ( 'NONE', #91, 1000.000000000000000 ) ;
#153 = AXIS2_PLACEMENT_3D ( 'NONE', #5, #120, #137 ) ;
#154 = APPROVAL_STATUS ( 'not_yet_approved' ) ;
#155 = LOCAL_TIME ( 9, 4, 49.00000000000000000, #21 ) ;
#156 = EDGE_LOOP ( 'NONE', ( #79, #77, #109, #27 ) ) ;
#157 = CIRCLE ( 'NONE', #144, 50.79999999999999716 ) ;
#158 = APPROVAL ( #247, 'UNSPECIFIED' ) ;
#159 = COORDINATED_UNIVERSAL_TIME_OFFSET ( 5, 0, .BEHIND. ) ;
#160 = CYLINDRICAL_SURFACE ( 'NONE', #226, 50.79999999999999716 ) ;
#161 = CARTESIAN_POINT ( 'NONE',  ( 0.0000000000000000000, 0.0000000000000000000, 0.0000000000000000000 ) ) ;
#162 = CARTESIAN_POINT ( 'NONE',  ( 0.0000000000000000000, 0.0000000000000000000, 50.54999999999999716 ) ) ;
#163 = VERTEX_POINT ( 'NONE', #49 ) ;
#164 = AXIS2_PLACEMENT_3D ( 'NONE', #161, #201, #102 ) ;
#165 = DIRECTION ( 'NONE',  ( 0.0000000000000000000, 0.0000000000000000000, 1.000000000000000000 ) ) ;
#166 = DIRECTION ( 'NONE',  ( 0.0000000000000000000, 0.0000000000000000000, -1.000000000000000000 ) ) ;
#167 = CARTESIAN_POINT ( 'NONE',  ( 0.0000000000000000000, 0.0000000000000000000, 0.0000000000000000000 ) ) ;
#168 = CARTESIAN_POINT ( 'NONE',  ( 0.0000000000000000000, 0.2499999999999863443, -50.79999999999999716 ) ) ;
#169 = CARTESIAN_POINT ( 'NONE',  ( 0.0000000000000000000, 0.0000000000000000000, 50.54999999999999716 ) ) ;
#170 = APPLICATION_PROTOCOL_DEFINITION ( 'international standard', 'config_control_design', 1994, #221 ) ;
#171 = PERSON_AND_ORGANIZATION ( #238, #84 ) ;
#172 = FACE_OUTER_BOUND ( 'NONE', #39, .T. ) ;
#173 = ORIENTED_EDGE ( 'NONE', *, *, #47, .F. ) ;
#174 = CC_DESIGN_PERSON_AND_ORGANIZATION_ASSIGNMENT ( #181, #206, ( #251 ) ) ;
#175 = PERSON_AND_ORGANIZATION_ROLE ( 'design_supplier' ) ;
#176 = EDGE_CURVE ( 'NONE', #229, #112, #53, .T. ) ;
#177 = AXIS2_PLACEMENT_3D ( 'NONE', #72, #29, #165 ) ;
#178 = COORDINATED_UNIVERSAL_TIME_OFFSET ( 5, 0, .BEHIND. ) ;
#179 = FACE_OUTER_BOUND ( 'NONE', #207, .T. ) ;
#180 = AXIS2_PLACEMENT_3D ( 'NONE', #202, #107, #32 ) ;
#181 = PERSON_AND_ORGANIZATION ( #238, #84 ) ;
#182 = DIRECTION ( 'NONE',  ( 0.0000000000000000000, -1.000000000000000000, -0.0000000000000000000 ) ) ;
#183 = APPROVAL_PERSON_ORGANIZATION ( #61, #65, #246 ) ;
#184 = CIRCLE ( 'NONE', #180, 50.54999999999999716 ) ;
#185 = DIRECTION ( 'NONE',  ( 0.0000000000000000000, 1.000000000000000000, 0.0000000000000000000 ) ) ;
#186 = PERSON_AND_ORGANIZATION ( #238, #84 ) ;
#187 =( NAMED_UNIT ( * ) SI_UNIT ( $, .STERADIAN. ) SOLID_ANGLE_UNIT ( ) );
#188 = EDGE_CURVE ( 'NONE', #229, #195, #212, .T. ) ;
#189 = DIRECTION ( 'NONE',  ( 0.0000000000000000000, 0.0000000000000000000, 1.000000000000000000 ) ) ;
#190 = AXIS2_PLACEMENT_3D ( 'NONE', #127, #218, #166 ) ;
#191 = LOCAL_TIME ( 9, 4, 49.00000000000000000, #234 ) ;
#192 = DIRECTION ( 'NONE',  ( 8.659560562355173214E-17, 0.7071067811865279218, -0.7071067811865671127 ) ) ;
#193 = SHAPE_DEFINITION_REPRESENTATION ( #196, #95 ) ;
#194 = CONICAL_SURFACE ( 'NONE', #177, 50.54999999999999716, 0.7853981633974760346 ) ;
#195 = VERTEX_POINT ( 'NONE', #50 ) ;
#196 = PRODUCT_DEFINITION_SHAPE ( 'NONE', 'NONE',  #90 ) ;
#197 = ORIENTED_EDGE ( 'NONE', *, *, #60, .F. ) ;
#198 = PRODUCT_DEFINITION_FORMATION_WITH_SPECIFIED_SOURCE ( 'ANY', '', #240, .NOT_KNOWN. ) ;
#199 = ORIENTED_EDGE ( 'NONE', *, *, #82, .F. ) ;
#200 = AXIS2_PLACEMENT_3D ( 'NONE', #68, #64, #89 ) ;
#201 = DIRECTION ( 'NONE',  ( 0.0000000000000000000, 1.000000000000000000, 0.0000000000000000000 ) ) ;
#202 = CARTESIAN_POINT ( 'NONE',  ( 0.0000000000000000000, 0.0000000000000000000, 0.0000000000000000000 ) ) ;
#203 = ORIENTED_EDGE ( 'NONE', *, *, #125, .T. ) ;
#204 = VECTOR ( 'NONE', #128, 1000.000000000000000 ) ;
#205 = DIRECTION ( 'NONE',  ( -0.0000000000000000000, -1.000000000000000000, -0.0000000000000000000 ) ) ;
#206 = PERSON_AND_ORGANIZATION_ROLE ( 'classification_officer' ) ;
#207 = EDGE_LOOP ( 'NONE', ( #88, #131 ) ) ;
#208 = PERSON_AND_ORGANIZATION_ROLE ( 'creator' ) ;
#209 = APPROVAL_DATE_TIME ( #213, #6 ) ;
#210 = ORIENTED_EDGE ( 'NONE', *, *, #56, .F. ) ;
#211 = EDGE_CURVE ( 'NONE', #195, #215, #101, .T. ) ;
#212 = CIRCLE ( 'NONE', #231, 65.20000000000000284 ) ;
#213 = DATE_AND_TIME ( #18, #42 ) ;
#214 = APPROVAL_PERSON_ORGANIZATION ( #186, #158, #132 ) ;
#215 = VERTEX_POINT ( 'NONE', #10 ) ;
#216 = FACE_OUTER_BOUND ( 'NONE', #156, .T. ) ;
#217 = DIRECTION ( 'NONE',  ( -1.000000000000000000, 0.0000000000000000000, 0.0000000000000000000 ) ) ;
#218 = DIRECTION ( 'NONE',  ( 1.000000000000000000, 0.0000000000000000000, 0.0000000000000000000 ) ) ;
#219 = CARTESIAN_POINT ( 'NONE',  ( 0.0000000000000000000, 0.0000000000000000000, -50.79999999999999716 ) ) ;
#220 = AXIS2_PLACEMENT_3D ( 'NONE', #126, #205, #13 ) ;
#221 = APPLICATION_CONTEXT ( 'configuration controlled 3d designs of mechanical parts and assemblies' ) ;
#222 = DATE_AND_TIME ( #108, #191 ) ;
#223 = FACE_OUTER_BOUND ( 'NONE', #94, .T. ) ;
#224 = APPROVAL_ROLE ( '' ) ;
#225 = DATE_TIME_ROLE ( 'classification_date' ) ;
#226 = AXIS2_PLACEMENT_3D ( 'NONE', #235, #233, #121 ) ;
#227 = DIRECTION ( 'NONE',  ( 1.000000000000000000, 0.0000000000000000000, 0.0000000000000000000 ) ) ;
#228 = CALENDAR_DATE ( 2019, 16, 7 ) ;
#229 = VERTEX_POINT ( 'NONE', #31 ) ;
#230 = CALENDAR_DATE ( 2019, 16, 7 ) ;
#231 = AXIS2_PLACEMENT_3D ( 'NONE', #70, #242, #33 ) ;
#232 = AXIS2_PLACEMENT_3D ( 'NONE', #243, #143, #148 ) ;
#233 = DIRECTION ( 'NONE',  ( -0.0000000000000000000, -1.000000000000000000, -0.0000000000000000000 ) ) ;
#234 = COORDINATED_UNIVERSAL_TIME_OFFSET ( 5, 0, .BEHIND. ) ;
#235 = CARTESIAN_POINT ( 'NONE',  ( 0.0000000000000000000, 0.0000000000000000000, 0.0000000000000000000 ) ) ;
#236 = ORIENTED_EDGE ( 'NONE', *, *, #118, .F. ) ;
#237 = DIRECTION ( 'NONE',  ( 0.0000000000000000000, 0.0000000000000000000, -1.000000000000000000 ) ) ;
#238 = PERSON ( 'UNSPECIFIED', 'UNSPECIFIED', 'UNSPECIFIED', ('UNSPECIFIED'), ('UNSPECIFIED'), ('UNSPECIFIED') ) ;
#239 = DIRECTION ( 'NONE',  ( -0.0000000000000000000, -1.000000000000000000, -0.0000000000000000000 ) ) ;
#240 = PRODUCT ( 'TTN041008-E0W', 'TTN041008-E0W', '', ( #76 ) ) ;
#241 = EDGE_CURVE ( 'NONE', #67, #215, #136, .T. ) ;
#242 = DIRECTION ( 'NONE',  ( 1.000000000000000000, 0.0000000000000000000, -1.224646799147353207E-16 ) ) ;
#243 = CARTESIAN_POINT ( 'NONE',  ( 0.0000000000000000000, 5.667206731556961863, 0.0000000000000000000 ) ) ;
#244 = DIRECTION ( 'NONE',  ( 0.0000000000000000000, 0.0000000000000000000, 1.000000000000000000 ) ) ;
#245 = CIRCLE ( 'NONE', #16, 50.79999999999999716 ) ;
#246 = APPROVAL_ROLE ( '' ) ;
#247 = APPROVAL_STATUS ( 'not_yet_approved' ) ;
#248 = SPHERICAL_SURFACE ( 'NONE', #190, 65.20000000000000284 ) ;
#249 = MANIFOLD_SOLID_BREP ( 'TTN035611-1-solid1', #37 ) ;
#250 = AXIS2_PLACEMENT_3D ( 'NONE', #167, #244, #227 ) ;
#251 = SECURITY_CLASSIFICATION ( '', '', #110 ) ;
ENDSEC;
END-ISO-10303-21;
