ISO-10303-21;
HEADER;
FILE_DESCRIPTION (( 'STEP AP203' ),
    '1' );
FILE_NAME ('ISP DLC Silicon_16817.step',
    '2021-01-06T00:47:17',
    ( '' ),
    ( '' ),
    'SwSTEP 2.0',
    'SolidWorks 2018',
    '' );
FILE_SCHEMA (( 'CONFIG_CONTROL_DESIGN' ));
ENDSEC;

DATA;
#1 = DIRECTION ( 'NONE',  ( 0.0000000000000000000, 0.0000000000000000000, 1.000000000000000000 ) ) ;
#2 = APPROVAL ( #84, 'UNSPECIFIED' ) ;
#3 = DATE_TIME_ROLE ( 'creation_date' ) ;
#4 = DIRECTION ( 'NONE',  ( -0.0000000000000000000, -0.0000000000000000000, -1.000000000000000000 ) ) ;
#5 = SHAPE_DEFINITION_REPRESENTATION ( #13, #115 ) ;
#6 = CARTESIAN_POINT ( 'NONE',  ( -25.39999999999999858, 0.0000000000000000000, 3.000000000000000000 ) ) ;
#7 = CARTESIAN_POINT ( 'NONE',  ( 0.0000000000000000000, 0.0000000000000000000, 3.000000000000000000 ) ) ;
#8 = DIRECTION ( 'NONE',  ( -1.000000000000000000, 0.0000000000000000000, 0.0000000000000000000 ) ) ;
#9 = CALENDAR_DATE ( 2021, 5, 1 ) ;
#10 = FACE_OUTER_BOUND ( 'NONE', #109, .T. ) ;
#11 = EDGE_LOOP ( 'NONE', ( #145, #114, #111, #107 ) ) ;
#12 = CC_DESIGN_PERSON_AND_ORGANIZATION_ASSIGNMENT ( #125, #171, ( #155 ) ) ;
#13 = PRODUCT_DEFINITION_SHAPE ( 'NONE', 'NONE',  #140 ) ;
#14 = ORIENTED_EDGE ( 'NONE', *, *, #158, .F. ) ;
#15 = DIRECTION ( 'NONE',  ( -0.0000000000000000000, -0.0000000000000000000, -1.000000000000000000 ) ) ;
#16 = LOCAL_TIME ( 19, 47, 17.00000000000000000, #78 ) ;
#17 = CIRCLE ( 'NONE', #90, 25.39999999999999858 ) ;
#18 = CARTESIAN_POINT ( 'NONE',  ( 0.0000000000000000000, 0.0000000000000000000, 0.0000000000000000000 ) ) ;
#19 = EDGE_CURVE ( 'NONE', #34, #122, #36, .T. ) ;
#20 = CARTESIAN_POINT ( 'NONE',  ( 0.0000000000000000000, 0.0000000000000000000, 3.000000000000000000 ) ) ;
#21 = LOCAL_TIME ( 19, 47, 17.00000000000000000, #35 ) ;
#22 = EDGE_LOOP ( 'NONE', ( #141, #169 ) ) ;
#23 = EDGE_CURVE ( 'NONE', #122, #34, #17, .T. ) ;
#24 = CARTESIAN_POINT ( 'NONE',  ( 25.39999999999999858, 3.110602869834276865E-15, 3.000000000000000000 ) ) ;
#25 = PERSON_AND_ORGANIZATION ( #54, #132 ) ;
#26 = CC_DESIGN_PERSON_AND_ORGANIZATION_ASSIGNMENT ( #129, #76, ( #140 ) ) ;
#27 = DESIGN_CONTEXT ( 'detailed design', #148, 'design' ) ;
#28 = COORDINATED_UNIVERSAL_TIME_OFFSET ( 5, 0, .BEHIND. ) ;
#29 = CARTESIAN_POINT ( 'NONE',  ( -25.39999999999999858, 0.0000000000000000000, 3.000000000000000000 ) ) ;
#30 = DIRECTION ( 'NONE',  ( 1.000000000000000000, 0.0000000000000000000, 0.0000000000000000000 ) ) ;
#31 = COORDINATED_UNIVERSAL_TIME_OFFSET ( 5, 0, .BEHIND. ) ;
#32 = CARTESIAN_POINT ( 'NONE',  ( 25.39999999999999858, 3.110602869834276865E-15, 0.0000000000000000000 ) ) ;
#33 =( NAMED_UNIT ( * ) SI_UNIT ( $, .STERADIAN. ) SOLID_ANGLE_UNIT ( ) );
#34 = VERTEX_POINT ( 'NONE', #41 ) ;
#35 = COORDINATED_UNIVERSAL_TIME_OFFSET ( 5, 0, .BEHIND. ) ;
#36 = CIRCLE ( 'NONE', #81, 25.39999999999999858 ) ;
#37 = DATE_AND_TIME ( #139, #16 ) ;
#38 = FACE_OUTER_BOUND ( 'NONE', #11, .T. ) ;
#39 = EDGE_CURVE ( 'NONE', #175, #122, #174, .T. ) ;
#40 = DIRECTION ( 'NONE',  ( -0.0000000000000000000, -0.0000000000000000000, -1.000000000000000000 ) ) ;
#41 = CARTESIAN_POINT ( 'NONE',  ( -25.39999999999999858, 0.0000000000000000000, 0.0000000000000000000 ) ) ;
#42 = ADVANCED_FACE ( 'NONE', ( #119 ), #146, .T. ) ;
#43 = DIRECTION ( 'NONE',  ( 0.0000000000000000000, 0.0000000000000000000, 1.000000000000000000 ) ) ;
#44 = APPLICATION_PROTOCOL_DEFINITION ( 'international standard', 'config_control_design', 1994, #56 ) ;
#45 = DIRECTION ( 'NONE',  ( 1.000000000000000000, 0.0000000000000000000, -0.0000000000000000000 ) ) ;
#46 = AXIS2_PLACEMENT_3D ( 'NONE', #71, #116, #127 ) ;
#47 = PERSON_AND_ORGANIZATION ( #54, #132 ) ;
#48 = AXIS2_PLACEMENT_3D ( 'NONE', #93, #15, #8 ) ;
#49 = CALENDAR_DATE ( 2021, 5, 1 ) ;
#50 = CIRCLE ( 'NONE', #151, 25.39999999999999858 ) ;
#51 = DATE_AND_TIME ( #49, #21 ) ;
#52 = CALENDAR_DATE ( 2021, 5, 1 ) ;
#53 = DIRECTION ( 'NONE',  ( 1.000000000000000000, 0.0000000000000000000, 0.0000000000000000000 ) ) ;
#54 = PERSON ( 'UNSPECIFIED', 'UNSPECIFIED', 'UNSPECIFIED', ('UNSPECIFIED'), ('UNSPECIFIED'), ('UNSPECIFIED') ) ;
#55 = APPROVAL ( #74, 'UNSPECIFIED' ) ;
#56 = APPLICATION_CONTEXT ( 'configuration controlled 3d designs of mechanical parts and assemblies' ) ;
#57 = MANIFOLD_SOLID_BREP ( 'Boss-Extrude1', #77 ) ;
#58 = AXIS2_PLACEMENT_3D ( 'NONE', #113, #123, #102 ) ;
#59 = CARTESIAN_POINT ( 'NONE',  ( 25.39999999999999858, 3.110602869834276865E-15, 3.000000000000000000 ) ) ;
#60 = PERSON_AND_ORGANIZATION_ROLE ( 'design_owner' ) ;
#61 = EDGE_CURVE ( 'NONE', #175, #130, #50, .T. ) ;
#62 = LOCAL_TIME ( 19, 47, 17.00000000000000000, #91 ) ;
#63 = FACE_OUTER_BOUND ( 'NONE', #128, .T. ) ;
#64 = DATE_AND_TIME ( #52, #62 ) ;
#65 = CC_DESIGN_SECURITY_CLASSIFICATION ( #162, ( #155 ) ) ;
#66 = APPROVAL_PERSON_ORGANIZATION ( #47, #131, #152 ) ;
#67 = ORIENTED_EDGE ( 'NONE', *, *, #23, .F. ) ;
#68 = AXIS2_PLACEMENT_3D ( 'NONE', #20, #43, #30 ) ;
#69 = DIRECTION ( 'NONE',  ( 0.0000000000000000000, 0.0000000000000000000, 1.000000000000000000 ) ) ;
#70 = UNCERTAINTY_MEASURE_WITH_UNIT (LENGTH_MEASURE( 1.000000000000000082E-05 ), #112, 'distance_accuracy_value', 'NONE');
#71 = CARTESIAN_POINT ( 'NONE',  ( 0.0000000000000000000, 0.0000000000000000000, 0.0000000000000000000 ) ) ;
#72 = EDGE_CURVE ( 'NONE', #130, #34, #161, .T. ) ;
#73 = DIRECTION ( 'NONE',  ( 0.0000000000000000000, 0.0000000000000000000, 1.000000000000000000 ) ) ;
#74 = APPROVAL_STATUS ( 'not_yet_approved' ) ;
#75 = ORIENTED_EDGE ( 'NONE', *, *, #39, .F. ) ;
#76 = PERSON_AND_ORGANIZATION_ROLE ( 'creator' ) ;
#77 = CLOSED_SHELL ( 'NONE', ( #144, #110, #42, #163 ) ) ;
#78 = COORDINATED_UNIVERSAL_TIME_OFFSET ( 5, 0, .BEHIND. ) ;
#79 = VECTOR ( 'NONE', #4, 1000.000000000000000 ) ;
#80 =( GEOMETRIC_REPRESENTATION_CONTEXT ( 3 ) GLOBAL_UNCERTAINTY_ASSIGNED_CONTEXT ( ( #70 ) ) GLOBAL_UNIT_ASSIGNED_CONTEXT ( ( #112, #97, #33 ) ) REPRESENTATION_CONTEXT ( 'NONE', 'WORKASPACE' ) );
#81 = AXIS2_PLACEMENT_3D ( 'NONE', #95, #1, #143 ) ;
#82 = CARTESIAN_POINT ( 'NONE',  ( 0.0000000000000000000, 0.0000000000000000000, 3.000000000000000000 ) ) ;
#83 = CC_DESIGN_DATE_AND_TIME_ASSIGNMENT ( #51, #3, ( #140 ) ) ;
#84 = APPROVAL_STATUS ( 'not_yet_approved' ) ;
#85 = PERSON_AND_ORGANIZATION_ROLE ( 'classification_officer' ) ;
#86 = CARTESIAN_POINT ( 'NONE',  ( 0.0000000000000000000, 0.0000000000000000000, 0.0000000000000000000 ) ) ;
#87 = DIRECTION ( 'NONE',  ( 0.0000000000000000000, 0.0000000000000000000, 1.000000000000000000 ) ) ;
#88 = PERSON_AND_ORGANIZATION ( #54, #132 ) ;
#89 = DIRECTION ( 'NONE',  ( 1.000000000000000000, 0.0000000000000000000, 0.0000000000000000000 ) ) ;
#90 = AXIS2_PLACEMENT_3D ( 'NONE', #18, #69, #53 ) ;
#91 = COORDINATED_UNIVERSAL_TIME_OFFSET ( 5, 0, .BEHIND. ) ;
#92 = APPROVAL_DATE_TIME ( #133, #2 ) ;
#93 = CARTESIAN_POINT ( 'NONE',  ( 0.0000000000000000000, 0.0000000000000000000, 3.000000000000000000 ) ) ;
#94 = LOCAL_TIME ( 19, 47, 17.00000000000000000, #31 ) ;
#95 = CARTESIAN_POINT ( 'NONE',  ( 0.0000000000000000000, 0.0000000000000000000, 0.0000000000000000000 ) ) ;
#96 = DIRECTION ( 'NONE',  ( 0.0000000000000000000, 0.0000000000000000000, 1.000000000000000000 ) ) ;
#97 =( NAMED_UNIT ( * ) PLANE_ANGLE_UNIT ( ) SI_UNIT ( $, .RADIAN. ) );
#98 = DATE_TIME_ROLE ( 'classification_date' ) ;
#99 = CC_DESIGN_APPROVAL ( #131, ( #155 ) ) ;
#100 = DATE_AND_TIME ( #173, #94 ) ;
#101 = VECTOR ( 'NONE', #40, 1000.000000000000000 ) ;
#102 = DIRECTION ( 'NONE',  ( -1.000000000000000000, 0.0000000000000000000, 0.0000000000000000000 ) ) ;
#103 = PRODUCT ( 'ISP DLC Silicon_16817', 'ISP DLC Silicon_16817', '', ( #137 ) ) ;
#104 = APPROVAL_PERSON_ORGANIZATION ( #25, #55, #166 ) ;
#105 = LOCAL_TIME ( 19, 47, 17.00000000000000000, #28 ) ;
#106 = CIRCLE ( 'NONE', #68, 25.39999999999999858 ) ;
#107 = ORIENTED_EDGE ( 'NONE', *, *, #72, .F. ) ;
#108 = CC_DESIGN_PERSON_AND_ORGANIZATION_ASSIGNMENT ( #167, #85, ( #162 ) ) ;
#109 = EDGE_LOOP ( 'NONE', ( #75, #14, #150, #142 ) ) ;
#110 = ADVANCED_FACE ( 'NONE', ( #10 ), #134, .T. ) ;
#111 = ORIENTED_EDGE ( 'NONE', *, *, #23, .T. ) ;
#112 =( LENGTH_UNIT ( ) NAMED_UNIT ( * ) SI_UNIT ( .MILLI., .METRE. ) );
#113 = CARTESIAN_POINT ( 'NONE',  ( 0.0000000000000000000, 0.0000000000000000000, 3.000000000000000000 ) ) ;
#114 = ORIENTED_EDGE ( 'NONE', *, *, #39, .T. ) ;
#115 = ADVANCED_BREP_SHAPE_REPRESENTATION ( 'ISP DLC Silicon_16817', ( #57, #46 ), #80 ) ;
#116 = DIRECTION ( 'NONE',  ( 0.0000000000000000000, 0.0000000000000000000, 1.000000000000000000 ) ) ;
#117 = CC_DESIGN_PERSON_AND_ORGANIZATION_ASSIGNMENT ( #88, #60, ( #103 ) ) ;
#118 = APPROVAL_PERSON_ORGANIZATION ( #149, #2, #153 ) ;
#119 = FACE_OUTER_BOUND ( 'NONE', #22, .T. ) ;
#120 = PERSON_AND_ORGANIZATION ( #54, #132 ) ;
#121 = DIRECTION ( 'NONE',  ( 1.000000000000000000, 0.0000000000000000000, -0.0000000000000000000 ) ) ;
#122 = VERTEX_POINT ( 'NONE', #32 ) ;
#123 = DIRECTION ( 'NONE',  ( -0.0000000000000000000, -0.0000000000000000000, -1.000000000000000000 ) ) ;
#124 = SECURITY_CLASSIFICATION_LEVEL ( 'unclassified' ) ;
#125 = PERSON_AND_ORGANIZATION ( #54, #132 ) ;
#126 = CC_DESIGN_APPROVAL ( #55, ( #162 ) ) ;
#127 = DIRECTION ( 'NONE',  ( 1.000000000000000000, 0.0000000000000000000, 0.0000000000000000000 ) ) ;
#128 = EDGE_LOOP ( 'NONE', ( #157, #67 ) ) ;
#129 = PERSON_AND_ORGANIZATION ( #54, #132 ) ;
#130 = VERTEX_POINT ( 'NONE', #6 ) ;
#131 = APPROVAL ( #168, 'UNSPECIFIED' ) ;
#132 = ORGANIZATION ( 'UNSPECIFIED', 'UNSPECIFIED', '' ) ;
#133 = DATE_AND_TIME ( #9, #105 ) ;
#134 = CYLINDRICAL_SURFACE ( 'NONE', #48, 25.39999999999999858 ) ;
#135 = PLANE ( 'NONE',  #170 ) ;
#136 = CC_DESIGN_APPROVAL ( #2, ( #140 ) ) ;
#137 = MECHANICAL_CONTEXT ( 'NONE', #56, 'mechanical' ) ;
#138 = CYLINDRICAL_SURFACE ( 'NONE', #58, 25.39999999999999858 ) ;
#139 = CALENDAR_DATE ( 2021, 5, 1 ) ;
#140 = PRODUCT_DEFINITION ( 'UNKNOWN', '', #155, #27 ) ;
#141 = ORIENTED_EDGE ( 'NONE', *, *, #158, .T. ) ;
#142 = ORIENTED_EDGE ( 'NONE', *, *, #19, .T. ) ;
#143 = DIRECTION ( 'NONE',  ( 1.000000000000000000, 0.0000000000000000000, 0.0000000000000000000 ) ) ;
#144 = ADVANCED_FACE ( 'NONE', ( #38 ), #138, .T. ) ;
#145 = ORIENTED_EDGE ( 'NONE', *, *, #61, .F. ) ;
#146 = PLANE ( 'NONE',  #159 ) ;
#147 = CC_DESIGN_DATE_AND_TIME_ASSIGNMENT ( #100, #98, ( #162 ) ) ;
#148 = APPLICATION_CONTEXT ( 'configuration controlled 3d designs of mechanical parts and assemblies' ) ;
#149 = PERSON_AND_ORGANIZATION ( #54, #132 ) ;
#150 = ORIENTED_EDGE ( 'NONE', *, *, #72, .T. ) ;
#151 = AXIS2_PLACEMENT_3D ( 'NONE', #7, #87, #89 ) ;
#152 = APPROVAL_ROLE ( '' ) ;
#153 = APPROVAL_ROLE ( '' ) ;
#154 = APPROVAL_DATE_TIME ( #64, #55 ) ;
#155 = PRODUCT_DEFINITION_FORMATION_WITH_SPECIFIED_SOURCE ( 'ANY', '', #103, .NOT_KNOWN. ) ;
#156 = APPROVAL_DATE_TIME ( #37, #131 ) ;
#157 = ORIENTED_EDGE ( 'NONE', *, *, #19, .F. ) ;
#158 = EDGE_CURVE ( 'NONE', #130, #175, #106, .T. ) ;
#159 = AXIS2_PLACEMENT_3D ( 'NONE', #82, #96, #121 ) ;
#160 = CC_DESIGN_PERSON_AND_ORGANIZATION_ASSIGNMENT ( #120, #165, ( #155 ) ) ;
#161 = LINE ( 'NONE', #29, #79 ) ;
#162 = SECURITY_CLASSIFICATION ( '', '', #124 ) ;
#163 = ADVANCED_FACE ( 'NONE', ( #63 ), #135, .F. ) ;
#164 = APPLICATION_PROTOCOL_DEFINITION ( 'international standard', 'config_control_design', 1994, #148 ) ;
#165 = PERSON_AND_ORGANIZATION_ROLE ( 'design_supplier' ) ;
#166 = APPROVAL_ROLE ( '' ) ;
#167 = PERSON_AND_ORGANIZATION ( #54, #132 ) ;
#168 = APPROVAL_STATUS ( 'not_yet_approved' ) ;
#169 = ORIENTED_EDGE ( 'NONE', *, *, #61, .T. ) ;
#170 = AXIS2_PLACEMENT_3D ( 'NONE', #86, #73, #45 ) ;
#171 = PERSON_AND_ORGANIZATION_ROLE ( 'creator' ) ;
#172 = PRODUCT_RELATED_PRODUCT_CATEGORY ( 'detail', '', ( #103 ) ) ;
#173 = CALENDAR_DATE ( 2021, 5, 1 ) ;
#174 = LINE ( 'NONE', #24, #101 ) ;
#175 = VERTEX_POINT ( 'NONE', #59 ) ;
ENDSEC;
END-ISO-10303-21;
