ISO-10303-21;
HEADER;
FILE_DESCRIPTION (( 'STEP AP203' ),
    '1' );
FILE_NAME ('Web Model 43216_48467.step',
    '2018-03-12T19:18:58',
    ( '' ),
    ( '' ),
    'SwSTEP 2.0',
    'SolidWorks 2016',
    '' );
FILE_SCHEMA (( 'CONFIG_CONTROL_DESIGN' ));
ENDSEC;

DATA;
#1 = DATE_TIME_ROLE ( 'classification_date' ) ;
#2 = VECTOR ( 'NONE', #45, 1000.000000000000000 ) ;
#3 = DATE_AND_TIME ( #121, #43 ) ;
#4 = APPROVAL_PERSON_ORGANIZATION ( #113, #58, #38 ) ;
#5 = LINE ( 'NONE', #68, #115 ) ;
#6 = ORIENTED_EDGE ( 'NONE', *, *, #102, .F. ) ;
#7 = APPROVAL_DATE_TIME ( #3, #58 ) ;
#8 = ORIENTED_EDGE ( 'NONE', *, *, #231, .F. ) ;
#9 = EDGE_CURVE ( 'NONE', #162, #57, #28, .T. ) ;
#10 = SECURITY_CLASSIFICATION ( '', '', #215 ) ;
#11 = CALENDAR_DATE ( 2018, 12, 3 ) ;
#12 = ORIENTED_EDGE ( 'NONE', *, *, #30, .T. ) ;
#13 = DIRECTION ( 'NONE',  ( 0.0000000000000000000, -2.081668171172168500E-016, -1.000000000000000000 ) ) ;
#14 = AXIS2_PLACEMENT_3D ( 'NONE', #29, #191, #85 ) ;
#15 = DIRECTION ( 'NONE',  ( 0.0000000000000000000, 0.0000000000000000000, -1.000000000000000000 ) ) ;
#16 = VERTEX_POINT ( 'NONE', #190 ) ;
#17 = LOCAL_TIME ( 15, 18, 58.00000000000000000, #47 ) ;
#18 = DIRECTION ( 'NONE',  ( 0.0000000000000000000, 1.000000000000000000, -2.081668171172168500E-016 ) ) ;
#19 = CARTESIAN_POINT ( 'NONE',  ( 4.750000000000000000, 12.50000000000000000, 12.49999999999999600 ) ) ;
#20 =( LENGTH_UNIT ( ) NAMED_UNIT ( * ) SI_UNIT ( .MILLI., .METRE. ) );
#21 = LINE ( 'NONE', #159, #125 ) ;
#22 = APPROVAL_STATUS ( 'not_yet_approved' ) ;
#23 = COORDINATED_UNIVERSAL_TIME_OFFSET ( 5, 0, .BEHIND. ) ;
#24 = PRODUCT_DEFINITION ( 'UNKNOWN', '', #70, #93 ) ;
#25 = DIRECTION ( 'NONE',  ( 0.0000000000000000000, -0.0000000000000000000, -1.000000000000000000 ) ) ;
#26 = CC_DESIGN_PERSON_AND_ORGANIZATION_ASSIGNMENT ( #65, #95, ( #24 ) ) ;
#27 = DIRECTION ( 'NONE',  ( -0.0000000000000000000, 1.000000000000000000, 2.081668171172168500E-016 ) ) ;
#28 = LINE ( 'NONE', #177, #171 ) ;
#29 = CARTESIAN_POINT ( 'NONE',  ( 4.750000000000000000, -12.50000000000000000, 12.50000000000000200 ) ) ;
#30 = EDGE_CURVE ( 'NONE', #234, #60, #21, .T. ) ;
#31 = DIRECTION ( 'NONE',  ( 1.000000000000000000, 0.0000000000000000000, 0.0000000000000000000 ) ) ;
#32 = LOCAL_TIME ( 15, 18, 58.00000000000000000, #23 ) ;
#33 = DIRECTION ( 'NONE',  ( 1.000000000000000000, 0.0000000000000000000, 0.0000000000000000000 ) ) ;
#34 = APPLICATION_PROTOCOL_DEFINITION ( 'international standard', 'config_control_design', 1994, #197 ) ;
#35 = APPLICATION_CONTEXT ( 'configuration controlled 3d designs of mechanical parts and assemblies' ) ;
#36 = ADVANCED_FACE ( 'NONE', ( #111 ), #178, .F. ) ;
#37 = APPROVAL_STATUS ( 'not_yet_approved' ) ;
#38 = APPROVAL_ROLE ( '' ) ;
#39 = ORIENTED_EDGE ( 'NONE', *, *, #163, .T. ) ;
#40 = CC_DESIGN_SECURITY_CLASSIFICATION ( #10, ( #70 ) ) ;
#41 = ADVANCED_FACE ( 'NONE', ( #114 ), #137, .F. ) ;
#42 = AXIS2_PLACEMENT_3D ( 'NONE', #164, #31, #50 ) ;
#43 = LOCAL_TIME ( 15, 18, 58.00000000000000000, #99 ) ;
#44 = APPROVAL_DATE_TIME ( #204, #184 ) ;
#45 = DIRECTION ( 'NONE',  ( 0.0000000000000000000, 0.0000000000000000000, -1.000000000000000000 ) ) ;
#46 = PLANE ( 'NONE',  #42 ) ;
#47 = COORDINATED_UNIVERSAL_TIME_OFFSET ( 5, 0, .BEHIND. ) ;
#48 = LINE ( 'NONE', #106, #145 ) ;
#49 = LINE ( 'NONE', #213, #2 ) ;
#50 = DIRECTION ( 'NONE',  ( 0.0000000000000000000, 0.0000000000000000000, -1.000000000000000000 ) ) ;
#51 = CC_DESIGN_PERSON_AND_ORGANIZATION_ASSIGNMENT ( #97, #53, ( #70 ) ) ;
#52 = APPROVAL_ROLE ( '' ) ;
#53 = PERSON_AND_ORGANIZATION_ROLE ( 'creator' ) ;
#54 = APPROVAL_PERSON_ORGANIZATION ( #108, #166, #52 ) ;
#55 = DIRECTION ( 'NONE',  ( 0.0000000000000000000, 0.0000000000000000000, 1.000000000000000000 ) ) ;
#56 = PERSON_AND_ORGANIZATION_ROLE ( 'design_supplier' ) ;
#57 = VERTEX_POINT ( 'NONE', #161 ) ;
#58 = APPROVAL ( #22, 'UNSPECIFIED' ) ;
#59 = COORDINATED_UNIVERSAL_TIME_OFFSET ( 5, 0, .BEHIND. ) ;
#60 = VERTEX_POINT ( 'NONE', #205 ) ;
#61 = PERSON_AND_ORGANIZATION ( #225, #122 ) ;
#62 = DIRECTION ( 'NONE',  ( 0.0000000000000000000, 0.0000000000000000000, -1.000000000000000000 ) ) ;
#63 = PRODUCT_RELATED_PRODUCT_CATEGORY ( 'detail', '', ( #229 ) ) ;
#64 = COORDINATED_UNIVERSAL_TIME_OFFSET ( 5, 0, .BEHIND. ) ;
#65 = PERSON_AND_ORGANIZATION ( #225, #122 ) ;
#66 = EDGE_LOOP ( 'NONE', ( #75, #192, #219, #131 ) ) ;
#67 = ORIENTED_EDGE ( 'NONE', *, *, #202, .T. ) ;
#68 = CARTESIAN_POINT ( 'NONE',  ( 4.750000000000000000, 12.50000000000000000, -12.50000000000000000 ) ) ;
#69 = DIRECTION ( 'NONE',  ( -0.0000000000000000000, -0.0000000000000000000, 1.000000000000000000 ) ) ;
#70 = PRODUCT_DEFINITION_FORMATION_WITH_SPECIFIED_SOURCE ( 'ANY', '', #229, .NOT_KNOWN. ) ;
#71 = DIRECTION ( 'NONE',  ( -0.0000000000000000000, 1.000000000000000000, 2.081668171172168500E-016 ) ) ;
#72 = CARTESIAN_POINT ( 'NONE',  ( -4.750000000000000000, 12.50000000000000000, 12.49999999999999600 ) ) ;
#73 = DATE_AND_TIME ( #216, #130 ) ;
#74 = VECTOR ( 'NONE', #27, 1000.000000000000000 ) ;
#75 = ORIENTED_EDGE ( 'NONE', *, *, #133, .T. ) ;
#76 = EDGE_CURVE ( 'NONE', #144, #234, #233, .T. ) ;
#77 = MECHANICAL_CONTEXT ( 'NONE', #197, 'mechanical' ) ;
#78 = AXIS2_PLACEMENT_3D ( 'NONE', #112, #33, #15 ) ;
#79 = PERSON_AND_ORGANIZATION ( #225, #122 ) ;
#80 = CARTESIAN_POINT ( 'NONE',  ( 4.750000000000000000, 12.50000000000000000, -12.50000000000000000 ) ) ;
#81 = EDGE_CURVE ( 'NONE', #16, #96, #146, .T. ) ;
#82 = LINE ( 'NONE', #109, #209 ) ;
#83 = ORIENTED_EDGE ( 'NONE', *, *, #76, .T. ) ;
#84 = CARTESIAN_POINT ( 'NONE',  ( 4.750000000000000000, 12.50000000000000000, -12.50000000000000000 ) ) ;
#85 = DIRECTION ( 'NONE',  ( 0.0000000000000000000, -0.0000000000000000000, 1.000000000000000000 ) ) ;
#86 = LINE ( 'NONE', #19, #200 ) ;
#87 = ORIENTED_EDGE ( 'NONE', *, *, #206, .T. ) ;
#88 =( GEOMETRIC_REPRESENTATION_CONTEXT ( 3 ) GLOBAL_UNCERTAINTY_ASSIGNED_CONTEXT ( ( #187 ) ) GLOBAL_UNIT_ASSIGNED_CONTEXT ( ( #20, #150, #116 ) ) REPRESENTATION_CONTEXT ( 'NONE', 'WORKASPACE' ) );
#89 = DIRECTION ( 'NONE',  ( -1.000000000000000000, -0.0000000000000000000, -0.0000000000000000000 ) ) ;
#90 = VECTOR ( 'NONE', #103, 1000.000000000000000 ) ;
#91 = LINE ( 'NONE', #72, #173 ) ;
#92 = APPROVAL_STATUS ( 'not_yet_approved' ) ;
#93 = DESIGN_CONTEXT ( 'detailed design', #35, 'design' ) ;
#94 = ORIENTED_EDGE ( 'NONE', *, *, #9, .F. ) ;
#95 = PERSON_AND_ORGANIZATION_ROLE ( 'creator' ) ;
#96 = VERTEX_POINT ( 'NONE', #203 ) ;
#97 = PERSON_AND_ORGANIZATION ( #225, #122 ) ;
#98 = ADVANCED_FACE ( 'NONE', ( #169 ), #222, .F. ) ;
#99 = COORDINATED_UNIVERSAL_TIME_OFFSET ( 5, 0, .BEHIND. ) ;
#100 = LINE ( 'NONE', #228, #194 ) ;
#101 = EDGE_LOOP ( 'NONE', ( #168, #237, #117, #132 ) ) ;
#102 = EDGE_CURVE ( 'NONE', #16, #60, #82, .T. ) ;
#103 = DIRECTION ( 'NONE',  ( -1.000000000000000000, -0.0000000000000000000, -0.0000000000000000000 ) ) ;
#104 = CARTESIAN_POINT ( 'NONE',  ( 4.750000000000000000, -12.50000000000000000, 12.50000000000000200 ) ) ;
#105 = DIRECTION ( 'NONE',  ( 0.0000000000000000000, -1.000000000000000000, 0.0000000000000000000 ) ) ;
#106 = CARTESIAN_POINT ( 'NONE',  ( -4.750000000000000000, 12.50000000000000000, 12.49999999999999600 ) ) ;
#107 = AXIS2_PLACEMENT_3D ( 'NONE', #84, #126, #124 ) ;
#108 = PERSON_AND_ORGANIZATION ( #225, #122 ) ;
#109 = CARTESIAN_POINT ( 'NONE',  ( 4.750000000000000000, -12.50000000000000000, -12.50000000000000500 ) ) ;
#110 = CC_DESIGN_APPROVAL ( #166, ( #70 ) ) ;
#111 = FACE_OUTER_BOUND ( 'NONE', #127, .T. ) ;
#112 = CARTESIAN_POINT ( 'NONE',  ( 4.750000000000000000, 0.0000000000000000000, 0.0000000000000000000 ) ) ;
#113 = PERSON_AND_ORGANIZATION ( #225, #122 ) ;
#114 = FACE_OUTER_BOUND ( 'NONE', #101, .T. ) ;
#115 = VECTOR ( 'NONE', #232, 1000.000000000000000 ) ;
#116 =( NAMED_UNIT ( * ) SI_UNIT ( $, .STERADIAN. ) SOLID_ANGLE_UNIT ( ) );
#117 = ORIENTED_EDGE ( 'NONE', *, *, #81, .F. ) ;
#118 = CC_DESIGN_DATE_AND_TIME_ASSIGNMENT ( #73, #1, ( #10 ) ) ;
#119 = ORIENTED_EDGE ( 'NONE', *, *, #175, .T. ) ;
#120 = EDGE_CURVE ( 'NONE', #60, #143, #100, .T. ) ;
#121 = CALENDAR_DATE ( 2018, 12, 3 ) ;
#122 = ORGANIZATION ( 'UNSPECIFIED', 'UNSPECIFIED', '' ) ;
#123 = CC_DESIGN_APPROVAL ( #58, ( #10 ) ) ;
#124 = DIRECTION ( 'NONE',  ( 0.0000000000000000000, -1.000000000000000000, -2.081668171172168500E-016 ) ) ;
#125 = VECTOR ( 'NONE', #62, 1000.000000000000000 ) ;
#126 = DIRECTION ( 'NONE',  ( 0.0000000000000000000, -2.081668171172168500E-016, 1.000000000000000000 ) ) ;
#127 = EDGE_LOOP ( 'NONE', ( #67, #94, #136, #119 ) ) ;
#128 = CC_DESIGN_DATE_AND_TIME_ASSIGNMENT ( #198, #151, ( #24 ) ) ;
#129 = SHAPE_DEFINITION_REPRESENTATION ( #218, #170 ) ;
#130 = LOCAL_TIME ( 15, 18, 58.00000000000000000, #64 ) ;
#131 = ORIENTED_EDGE ( 'NONE', *, *, #9, .T. ) ;
#132 = ORIENTED_EDGE ( 'NONE', *, *, #102, .T. ) ;
#133 = EDGE_CURVE ( 'NONE', #57, #234, #48, .T. ) ;
#134 = DIRECTION ( 'NONE',  ( 1.000000000000000000, 0.0000000000000000000, 0.0000000000000000000 ) ) ;
#135 = ADVANCED_FACE ( 'NONE', ( #181 ), #226, .T. ) ;
#136 = ORIENTED_EDGE ( 'NONE', *, *, #206, .F. ) ;
#137 = PLANE ( 'NONE',  #107 ) ;
#138 = ORIENTED_EDGE ( 'NONE', *, *, #120, .F. ) ;
#139 = DIRECTION ( 'NONE',  ( 0.0000000000000000000, -1.000000000000000000, 2.081668171172168500E-016 ) ) ;
#140 = AXIS2_PLACEMENT_3D ( 'NONE', #201, #105, #25 ) ;
#141 = DATE_AND_TIME ( #167, #188 ) ;
#142 = DIRECTION ( 'NONE',  ( 0.0000000000000000000, -1.000000000000000000, 2.081668171172168500E-016 ) ) ;
#143 = VERTEX_POINT ( 'NONE', #147 ) ;
#144 = VERTEX_POINT ( 'NONE', #195 ) ;
#145 = VECTOR ( 'NONE', #139, 1000.000000000000000 ) ;
#146 = LINE ( 'NONE', #80, #74 ) ;
#147 = CARTESIAN_POINT ( 'NONE',  ( -4.750000000000000000, 12.50000000000000000, -12.50000000000000000 ) ) ;
#148 = CARTESIAN_POINT ( 'NONE',  ( -4.750000000000000000, -12.50000000000000000, 12.50000000000000200 ) ) ;
#149 = ORIENTED_EDGE ( 'NONE', *, *, #30, .F. ) ;
#150 =( NAMED_UNIT ( * ) PLANE_ANGLE_UNIT ( ) SI_UNIT ( $, .RADIAN. ) );
#151 = DATE_TIME_ROLE ( 'creation_date' ) ;
#152 = ADVANCED_FACE ( 'NONE', ( #223 ), #196, .F. ) ;
#153 = APPROVAL_PERSON_ORGANIZATION ( #79, #184, #185 ) ;
#154 = LINE ( 'NONE', #179, #211 ) ;
#155 = FACE_OUTER_BOUND ( 'NONE', #224, .T. ) ;
#156 = AXIS2_PLACEMENT_3D ( 'NONE', #193, #13, #18 ) ;
#157 = ORIENTED_EDGE ( 'NONE', *, *, #133, .F. ) ;
#158 = CLOSED_SHELL ( 'NONE', ( #152, #98, #41, #36, #135, #189 ) ) ;
#159 = CARTESIAN_POINT ( 'NONE',  ( -4.750000000000000000, -12.50000000000000000, 12.50000000000000200 ) ) ;
#160 = ORIENTED_EDGE ( 'NONE', *, *, #81, .T. ) ;
#161 = CARTESIAN_POINT ( 'NONE',  ( -4.750000000000000000, 12.50000000000000000, 12.49999999999999600 ) ) ;
#162 = VERTEX_POINT ( 'NONE', #210 ) ;
#163 = EDGE_CURVE ( 'NONE', #162, #144, #86, .T. ) ;
#164 = CARTESIAN_POINT ( 'NONE',  ( -4.750000000000000000, 0.0000000000000000000, 0.0000000000000000000 ) ) ;
#165 = PERSON_AND_ORGANIZATION_ROLE ( 'design_owner' ) ;
#166 = APPROVAL ( #37, 'UNSPECIFIED' ) ;
#167 = CALENDAR_DATE ( 2018, 12, 3 ) ;
#168 = ORIENTED_EDGE ( 'NONE', *, *, #120, .T. ) ;
#169 = FACE_OUTER_BOUND ( 'NONE', #230, .T. ) ;
#170 = ADVANCED_BREP_SHAPE_REPRESENTATION ( 'Web Model 43216_48467', ( #199, #172 ), #88 ) ;
#171 = VECTOR ( 'NONE', #174, 1000.000000000000000 ) ;
#172 = AXIS2_PLACEMENT_3D ( 'NONE', #207, #55, #134 ) ;
#173 = VECTOR ( 'NONE', #182, 1000.000000000000000 ) ;
#174 = DIRECTION ( 'NONE',  ( -1.000000000000000000, -0.0000000000000000000, -0.0000000000000000000 ) ) ;
#175 = EDGE_CURVE ( 'NONE', #96, #143, #5, .T. ) ;
#176 = EDGE_LOOP ( 'NONE', ( #39, #212, #160, #87 ) ) ;
#177 = CARTESIAN_POINT ( 'NONE',  ( 4.750000000000000000, 12.50000000000000000, 12.49999999999999600 ) ) ;
#178 = PLANE ( 'NONE',  #140 ) ;
#179 = CARTESIAN_POINT ( 'NONE',  ( 4.750000000000000000, 12.50000000000000000, 12.49999999999999600 ) ) ;
#180 = PERSON_AND_ORGANIZATION ( #225, #122 ) ;
#181 = FACE_OUTER_BOUND ( 'NONE', #176, .T. ) ;
#182 = DIRECTION ( 'NONE',  ( -0.0000000000000000000, -0.0000000000000000000, 1.000000000000000000 ) ) ;
#183 = PERSON_AND_ORGANIZATION_ROLE ( 'classification_officer' ) ;
#184 = APPROVAL ( #92, 'UNSPECIFIED' ) ;
#185 = APPROVAL_ROLE ( '' ) ;
#186 = ORIENTED_EDGE ( 'NONE', *, *, #202, .F. ) ;
#187 = UNCERTAINTY_MEASURE_WITH_UNIT (LENGTH_MEASURE( 1.000000000000000100E-005 ), #20, 'distance_accuracy_value', 'NONE');
#188 = LOCAL_TIME ( 15, 18, 58.00000000000000000, #59 ) ;
#189 = ADVANCED_FACE ( 'NONE', ( #155 ), #46, .F. ) ;
#190 = CARTESIAN_POINT ( 'NONE',  ( 4.750000000000000000, -12.50000000000000000, -12.50000000000000500 ) ) ;
#191 = DIRECTION ( 'NONE',  ( -0.0000000000000000000, 1.000000000000000000, 0.0000000000000000000 ) ) ;
#192 = ORIENTED_EDGE ( 'NONE', *, *, #76, .F. ) ;
#193 = CARTESIAN_POINT ( 'NONE',  ( 4.750000000000000000, 12.50000000000000000, 12.49999999999999600 ) ) ;
#194 = VECTOR ( 'NONE', #71, 1000.000000000000000 ) ;
#195 = CARTESIAN_POINT ( 'NONE',  ( 4.750000000000000000, -12.50000000000000000, 12.50000000000000200 ) ) ;
#196 = PLANE ( 'NONE',  #156 ) ;
#197 = APPLICATION_CONTEXT ( 'configuration controlled 3d designs of mechanical parts and assemblies' ) ;
#198 = DATE_AND_TIME ( #11, #17 ) ;
#199 = MANIFOLD_SOLID_BREP ( 'Boss-Extrude1', #158 ) ;
#200 = VECTOR ( 'NONE', #142, 1000.000000000000000 ) ;
#201 = CARTESIAN_POINT ( 'NONE',  ( 4.750000000000000000, 12.50000000000000000, 12.49999999999999600 ) ) ;
#202 = EDGE_CURVE ( 'NONE', #143, #57, #91, .T. ) ;
#203 = CARTESIAN_POINT ( 'NONE',  ( 4.750000000000000000, 12.50000000000000000, -12.50000000000000000 ) ) ;
#204 = DATE_AND_TIME ( #208, #32 ) ;
#205 = CARTESIAN_POINT ( 'NONE',  ( -4.750000000000000000, -12.50000000000000000, -12.50000000000000500 ) ) ;
#206 = EDGE_CURVE ( 'NONE', #96, #162, #154, .T. ) ;
#207 = CARTESIAN_POINT ( 'NONE',  ( 0.0000000000000000000, 0.0000000000000000000, 0.0000000000000000000 ) ) ;
#208 = CALENDAR_DATE ( 2018, 12, 3 ) ;
#209 = VECTOR ( 'NONE', #89, 1000.000000000000000 ) ;
#210 = CARTESIAN_POINT ( 'NONE',  ( 4.750000000000000000, 12.50000000000000000, 12.49999999999999600 ) ) ;
#211 = VECTOR ( 'NONE', #69, 1000.000000000000000 ) ;
#212 = ORIENTED_EDGE ( 'NONE', *, *, #231, .T. ) ;
#213 = CARTESIAN_POINT ( 'NONE',  ( 4.750000000000000000, -12.50000000000000000, 12.50000000000000200 ) ) ;
#214 = CC_DESIGN_APPROVAL ( #184, ( #24 ) ) ;
#215 = SECURITY_CLASSIFICATION_LEVEL ( 'unclassified' ) ;
#216 = CALENDAR_DATE ( 2018, 12, 3 ) ;
#217 = CC_DESIGN_PERSON_AND_ORGANIZATION_ASSIGNMENT ( #61, #165, ( #229 ) ) ;
#218 = PRODUCT_DEFINITION_SHAPE ( 'NONE', 'NONE',  #24 ) ;
#219 = ORIENTED_EDGE ( 'NONE', *, *, #163, .F. ) ;
#220 = PERSON_AND_ORGANIZATION ( #225, #122 ) ;
#221 = APPROVAL_DATE_TIME ( #141, #166 ) ;
#222 = PLANE ( 'NONE',  #14 ) ;
#223 = FACE_OUTER_BOUND ( 'NONE', #66, .T. ) ;
#224 = EDGE_LOOP ( 'NONE', ( #157, #186, #138, #149 ) ) ;
#225 = PERSON ( 'UNSPECIFIED', 'UNSPECIFIED', 'UNSPECIFIED', ('UNSPECIFIED'), ('UNSPECIFIED'), ('UNSPECIFIED') ) ;
#226 = PLANE ( 'NONE',  #78 ) ;
#227 = CC_DESIGN_PERSON_AND_ORGANIZATION_ASSIGNMENT ( #220, #56, ( #70 ) ) ;
#228 = CARTESIAN_POINT ( 'NONE',  ( -4.750000000000000000, 12.50000000000000000, -12.50000000000000000 ) ) ;
#229 = PRODUCT ( 'Web Model 43216_48467', 'Web Model 43216_48467', '', ( #77 ) ) ;
#230 = EDGE_LOOP ( 'NONE', ( #12, #6, #8, #83 ) ) ;
#231 = EDGE_CURVE ( 'NONE', #144, #16, #49, .T. ) ;
#232 = DIRECTION ( 'NONE',  ( -1.000000000000000000, -0.0000000000000000000, -0.0000000000000000000 ) ) ;
#233 = LINE ( 'NONE', #104, #90 ) ;
#234 = VERTEX_POINT ( 'NONE', #148 ) ;
#235 = CC_DESIGN_PERSON_AND_ORGANIZATION_ASSIGNMENT ( #180, #183, ( #10 ) ) ;
#236 = APPLICATION_PROTOCOL_DEFINITION ( 'international standard', 'config_control_design', 1994, #35 ) ;
#237 = ORIENTED_EDGE ( 'NONE', *, *, #175, .F. ) ;
ENDSEC;
END-ISO-10303-21;
