ISO-10303-21;
HEADER;
FILE_DESCRIPTION (( 'STEP AP203' ),
    '1' );
FILE_NAME ('Web Model 43367_20647.step',
    '2022-03-16T13:54:31',
    ( '' ),
    ( '' ),
    'SwSTEP 2.0',
    'SolidWorks 2021',
    '' );
FILE_SCHEMA (( 'CONFIG_CONTROL_DESIGN' ));
ENDSEC;

DATA;
#1 = ORIENTED_EDGE ( 'NONE', *, *, #119, .T. ) ;
#2 = FACE_OUTER_BOUND ( 'NONE', #38, .T. ) ;
#3 = APPROVAL_PERSON_ORGANIZATION ( #32, #163, #56 ) ;
#4 = VERTEX_POINT ( 'NONE', #52 ) ;
#5 = CARTESIAN_POINT ( 'NONE',  ( 7.500000000000000000, 9.184850993605147944E-16, 1.000000000000000000 ) ) ;
#6 = APPROVAL ( #145, 'UNSPECIFIED' ) ;
#7 = CALENDAR_DATE ( 2022, 16, 3 ) ;
#8 = FACE_OUTER_BOUND ( 'NONE', #117, .T. ) ;
#9 = CARTESIAN_POINT ( 'NONE',  ( 0.000000000000000000, 0.000000000000000000, 1.000000000000000000 ) ) ;
#10 = APPROVAL_ROLE ( '' ) ;
#11 = PERSON_AND_ORGANIZATION ( #41, #67 ) ;
#12 = LOCAL_TIME ( 9, 54, 31.00000000000000000, #22 ) ;
#13 = PERSON_AND_ORGANIZATION ( #41, #67 ) ;
#14 = VERTEX_POINT ( 'NONE', #54 ) ;
#15 = ORIENTED_EDGE ( 'NONE', *, *, #102, .T. ) ;
#16 = EDGE_CURVE ( 'NONE', #4, #115, #61, .T. ) ;
#17 = CIRCLE ( 'NONE', #111, 7.500000000000000000 ) ;
#18 = PERSON_AND_ORGANIZATION ( #41, #67 ) ;
#19 = DIRECTION ( 'NONE',  ( -0.000000000000000000, -0.000000000000000000, -1.000000000000000000 ) ) ;
#20 = DIRECTION ( 'NONE',  ( 1.000000000000000000, 0.000000000000000000, -0.000000000000000000 ) ) ;
#21 = CC_DESIGN_PERSON_AND_ORGANIZATION_ASSIGNMENT ( #63, #114, ( #59 ) ) ;
#22 = COORDINATED_UNIVERSAL_TIME_OFFSET ( 5, 0, .BEHIND. ) ;
#23 = APPROVAL_ROLE ( '' ) ;
#24 = DIRECTION ( 'NONE',  ( 0.000000000000000000, 0.000000000000000000, 1.000000000000000000 ) ) ;
#25 = ORIENTED_EDGE ( 'NONE', *, *, #153, .F. ) ;
#26 = EDGE_CURVE ( 'NONE', #115, #4, #27, .T. ) ;
#27 = CIRCLE ( 'NONE', #43, 7.500000000000000000 ) ;
#28 = ORIENTED_EDGE ( 'NONE', *, *, #102, .F. ) ;
#29 =( NAMED_UNIT ( * ) PLANE_ANGLE_UNIT ( ) SI_UNIT ( $, .RADIAN. ) );
#30 = DIRECTION ( 'NONE',  ( 1.000000000000000000, 0.000000000000000000, 0.000000000000000000 ) ) ;
#31 =( NAMED_UNIT ( * ) SI_UNIT ( $, .STERADIAN. ) SOLID_ANGLE_UNIT ( ) );
#32 = PERSON_AND_ORGANIZATION ( #41, #67 ) ;
#33 = APPROVAL_PERSON_ORGANIZATION ( #11, #51, #23 ) ;
#34 = DIRECTION ( 'NONE',  ( -1.000000000000000000, 0.000000000000000000, 0.000000000000000000 ) ) ;
#35 = PRODUCT_DEFINITION ( 'UNKNOWN', '', #59, #172 ) ;
#36 = APPROVAL_DATE_TIME ( #78, #6 ) ;
#37 = EDGE_LOOP ( 'NONE', ( #135, #160 ) ) ;
#38 = EDGE_LOOP ( 'NONE', ( #100, #101, #81, #53 ) ) ;
#39 = AXIS2_PLACEMENT_3D ( 'NONE', #161, #138, #34 ) ;
#40 = DIRECTION ( 'NONE',  ( 0.000000000000000000, 0.000000000000000000, 1.000000000000000000 ) ) ;
#41 = PERSON ( 'UNSPECIFIED', 'UNSPECIFIED', 'UNSPECIFIED', ('UNSPECIFIED'), ('UNSPECIFIED'), ('UNSPECIFIED') ) ;
#42 = FACE_OUTER_BOUND ( 'NONE', #92, .T. ) ;
#43 = AXIS2_PLACEMENT_3D ( 'NONE', #69, #120, #122 ) ;
#44 = DIRECTION ( 'NONE',  ( -1.000000000000000000, 0.000000000000000000, 0.000000000000000000 ) ) ;
#45 = APPROVAL_DATE_TIME ( #166, #163 ) ;
#46 = ADVANCED_FACE ( 'NONE', ( #2 ), #103, .T. ) ;
#47 = CIRCLE ( 'NONE', #70, 7.500000000000000000 ) ;
#48 = COORDINATED_UNIVERSAL_TIME_OFFSET ( 5, 0, .BEHIND. ) ;
#49 = PERSON_AND_ORGANIZATION ( #41, #67 ) ;
#50 = CC_DESIGN_APPROVAL ( #51, ( #140 ) ) ;
#51 = APPROVAL ( #89, 'UNSPECIFIED' ) ;
#52 = CARTESIAN_POINT ( 'NONE',  ( 7.500000000000000000, 9.184850993605147944E-16, 1.000000000000000000 ) ) ;
#53 = ORIENTED_EDGE ( 'NONE', *, *, #174, .T. ) ;
#54 = CARTESIAN_POINT ( 'NONE',  ( 7.500000000000000000, 9.184850993605147944E-16, 0.000000000000000000 ) ) ;
#55 = CARTESIAN_POINT ( 'NONE',  ( -7.500000000000000000, 0.000000000000000000, 1.000000000000000000 ) ) ;
#56 = APPROVAL_ROLE ( '' ) ;
#57 = DIRECTION ( 'NONE',  ( 0.000000000000000000, 0.000000000000000000, 1.000000000000000000 ) ) ;
#58 = ADVANCED_FACE ( 'NONE', ( #8 ), #85, .F. ) ;
#59 = PRODUCT_DEFINITION_FORMATION_WITH_SPECIFIED_SOURCE ( 'ANY', '', #99, .NOT_KNOWN. ) ;
#60 = LINE ( 'NONE', #5, #64 ) ;
#61 = CIRCLE ( 'NONE', #118, 7.500000000000000000 ) ;
#62 = PLANE ( 'NONE',  #168 ) ;
#63 = PERSON_AND_ORGANIZATION ( #41, #67 ) ;
#64 = VECTOR ( 'NONE', #19, 1000.000000000000000 ) ;
#65 = PERSON_AND_ORGANIZATION_ROLE ( 'classification_officer' ) ;
#66 = COORDINATED_UNIVERSAL_TIME_OFFSET ( 5, 0, .BEHIND. ) ;
#67 = ORGANIZATION ( 'UNSPECIFIED', 'UNSPECIFIED', '' ) ;
#68 = CC_DESIGN_PERSON_AND_ORGANIZATION_ASSIGNMENT ( #129, #169, ( #35 ) ) ;
#69 = CARTESIAN_POINT ( 'NONE',  ( 0.000000000000000000, 0.000000000000000000, 1.000000000000000000 ) ) ;
#70 = AXIS2_PLACEMENT_3D ( 'NONE', #88, #123, #106 ) ;
#71 = CC_DESIGN_DATE_AND_TIME_ASSIGNMENT ( #156, #113, ( #140 ) ) ;
#72 = DIRECTION ( 'NONE',  ( 1.000000000000000000, 0.000000000000000000, 0.000000000000000000 ) ) ;
#73 =( LENGTH_UNIT ( ) NAMED_UNIT ( * ) SI_UNIT ( .MILLI., .METRE. ) );
#74 = CALENDAR_DATE ( 2022, 16, 3 ) ;
#75 = PERSON_AND_ORGANIZATION ( #41, #67 ) ;
#76 = ADVANCED_FACE ( 'NONE', ( #42 ), #139, .T. ) ;
#77 = LOCAL_TIME ( 9, 54, 31.00000000000000000, #66 ) ;
#78 = DATE_AND_TIME ( #158, #91 ) ;
#79 = AXIS2_PLACEMENT_3D ( 'NONE', #141, #57, #72 ) ;
#80 = CC_DESIGN_DATE_AND_TIME_ASSIGNMENT ( #95, #148, ( #35 ) ) ;
#81 = ORIENTED_EDGE ( 'NONE', *, *, #153, .T. ) ;
#82 = LOCAL_TIME ( 9, 54, 31.00000000000000000, #164 ) ;
#83 = CARTESIAN_POINT ( 'NONE',  ( 0.000000000000000000, 0.000000000000000000, 1.000000000000000000 ) ) ;
#84 = ORIENTED_EDGE ( 'NONE', *, *, #16, .F. ) ;
#85 = PLANE ( 'NONE',  #146 ) ;
#86 = CC_DESIGN_PERSON_AND_ORGANIZATION_ASSIGNMENT ( #49, #65, ( #140 ) ) ;
#87 = LINE ( 'NONE', #165, #90 ) ;
#88 = CARTESIAN_POINT ( 'NONE',  ( 0.000000000000000000, 0.000000000000000000, 0.000000000000000000 ) ) ;
#89 = APPROVAL_STATUS ( 'not_yet_approved' ) ;
#90 = VECTOR ( 'NONE', #152, 1000.000000000000000 ) ;
#91 = LOCAL_TIME ( 9, 54, 31.00000000000000000, #48 ) ;
#92 = EDGE_LOOP ( 'NONE', ( #84, #1, #15, #25 ) ) ;
#93 = CARTESIAN_POINT ( 'NONE',  ( 0.000000000000000000, 0.000000000000000000, 1.000000000000000000 ) ) ;
#94 = MECHANICAL_CONTEXT ( 'NONE', #137, 'mechanical' ) ;
#95 = DATE_AND_TIME ( #175, #12 ) ;
#96 = MANIFOLD_SOLID_BREP ( 'Boss-Extrude1', #131 ) ;
#97 = APPROVAL_PERSON_ORGANIZATION ( #75, #6, #10 ) ;
#98 = COORDINATED_UNIVERSAL_TIME_OFFSET ( 5, 0, .BEHIND. ) ;
#99 = PRODUCT ( 'Web Model 43367_20647', 'Web Model 43367_20647', '', ( #94 ) ) ;
#100 = ORIENTED_EDGE ( 'NONE', *, *, #119, .F. ) ;
#101 = ORIENTED_EDGE ( 'NONE', *, *, #26, .F. ) ;
#102 = EDGE_CURVE ( 'NONE', #14, #116, #47, .T. ) ;
#103 = CYLINDRICAL_SURFACE ( 'NONE', #39, 7.500000000000000000 ) ;
#104 = CARTESIAN_POINT ( 'NONE',  ( 0.000000000000000000, 0.000000000000000000, 0.000000000000000000 ) ) ;
#105 = DIRECTION ( 'NONE',  ( 1.000000000000000000, 0.000000000000000000, -0.000000000000000000 ) ) ;
#106 = DIRECTION ( 'NONE',  ( 1.000000000000000000, 0.000000000000000000, 0.000000000000000000 ) ) ;
#107 = CC_DESIGN_APPROVAL ( #163, ( #35 ) ) ;
#108 = APPLICATION_PROTOCOL_DEFINITION ( 'international standard', 'config_control_design', 1994, #137 ) ;
#109 = PERSON_AND_ORGANIZATION_ROLE ( 'creator' ) ;
#110 = CC_DESIGN_PERSON_AND_ORGANIZATION_ASSIGNMENT ( #13, #109, ( #59 ) ) ;
#111 = AXIS2_PLACEMENT_3D ( 'NONE', #104, #40, #30 ) ;
#112 = UNCERTAINTY_MEASURE_WITH_UNIT (LENGTH_MEASURE( 1.000000000000000082E-05 ), #73, 'distance_accuracy_value', 'NONE');
#113 = DATE_TIME_ROLE ( 'classification_date' ) ;
#114 = PERSON_AND_ORGANIZATION_ROLE ( 'design_supplier' ) ;
#115 = VERTEX_POINT ( 'NONE', #55 ) ;
#116 = VERTEX_POINT ( 'NONE', #151 ) ;
#117 = EDGE_LOOP ( 'NONE', ( #149, #28 ) ) ;
#118 = AXIS2_PLACEMENT_3D ( 'NONE', #83, #24, #136 ) ;
#119 = EDGE_CURVE ( 'NONE', #4, #14, #60, .T. ) ;
#120 = DIRECTION ( 'NONE',  ( 0.000000000000000000, 0.000000000000000000, 1.000000000000000000 ) ) ;
#121 = CC_DESIGN_SECURITY_CLASSIFICATION ( #140, ( #59 ) ) ;
#122 = DIRECTION ( 'NONE',  ( 1.000000000000000000, 0.000000000000000000, 0.000000000000000000 ) ) ;
#123 = DIRECTION ( 'NONE',  ( 0.000000000000000000, 0.000000000000000000, 1.000000000000000000 ) ) ;
#124 = PERSON_AND_ORGANIZATION_ROLE ( 'design_owner' ) ;
#125 = LOCAL_TIME ( 9, 54, 31.00000000000000000, #98 ) ;
#126 = APPLICATION_PROTOCOL_DEFINITION ( 'international standard', 'config_control_design', 1994, #159 ) ;
#127 = APPROVAL_STATUS ( 'not_yet_approved' ) ;
#128 = DIRECTION ( 'NONE',  ( 0.000000000000000000, 0.000000000000000000, 1.000000000000000000 ) ) ;
#129 = PERSON_AND_ORGANIZATION ( #41, #67 ) ;
#130 = CC_DESIGN_PERSON_AND_ORGANIZATION_ASSIGNMENT ( #18, #124, ( #99 ) ) ;
#131 = CLOSED_SHELL ( 'NONE', ( #76, #46, #142, #58 ) ) ;
#132 = SECURITY_CLASSIFICATION_LEVEL ( 'unclassified' ) ;
#133 = APPROVAL_DATE_TIME ( #170, #51 ) ;
#134 = PRODUCT_RELATED_PRODUCT_CATEGORY ( 'detail', '', ( #99 ) ) ;
#135 = ORIENTED_EDGE ( 'NONE', *, *, #26, .T. ) ;
#136 = DIRECTION ( 'NONE',  ( 1.000000000000000000, 0.000000000000000000, 0.000000000000000000 ) ) ;
#137 = APPLICATION_CONTEXT ( 'configuration controlled 3d designs of mechanical parts and assemblies' ) ;
#138 = DIRECTION ( 'NONE',  ( -0.000000000000000000, -0.000000000000000000, -1.000000000000000000 ) ) ;
#139 = CYLINDRICAL_SURFACE ( 'NONE', #144, 7.500000000000000000 ) ;
#140 = SECURITY_CLASSIFICATION ( '', '', #132 ) ;
#141 = CARTESIAN_POINT ( 'NONE',  ( 0.000000000000000000, 0.000000000000000000, 0.000000000000000000 ) ) ;
#142 = ADVANCED_FACE ( 'NONE', ( #167 ), #62, .T. ) ;
#143 = DIRECTION ( 'NONE',  ( 0.000000000000000000, 0.000000000000000000, 1.000000000000000000 ) ) ;
#144 = AXIS2_PLACEMENT_3D ( 'NONE', #9, #155, #44 ) ;
#145 = APPROVAL_STATUS ( 'not_yet_approved' ) ;
#146 = AXIS2_PLACEMENT_3D ( 'NONE', #162, #128, #105 ) ;
#147 = PRODUCT_DEFINITION_SHAPE ( 'NONE', 'NONE',  #35 ) ;
#148 = DATE_TIME_ROLE ( 'creation_date' ) ;
#149 = ORIENTED_EDGE ( 'NONE', *, *, #174, .F. ) ;
#150 = CC_DESIGN_APPROVAL ( #6, ( #59 ) ) ;
#151 = CARTESIAN_POINT ( 'NONE',  ( -7.500000000000000000, 0.000000000000000000, 0.000000000000000000 ) ) ;
#152 = DIRECTION ( 'NONE',  ( -0.000000000000000000, -0.000000000000000000, -1.000000000000000000 ) ) ;
#153 = EDGE_CURVE ( 'NONE', #115, #116, #87, .T. ) ;
#154 = ADVANCED_BREP_SHAPE_REPRESENTATION ( 'Web Model 43367_20647', ( #96, #79 ), #173 ) ;
#155 = DIRECTION ( 'NONE',  ( -0.000000000000000000, -0.000000000000000000, -1.000000000000000000 ) ) ;
#156 = DATE_AND_TIME ( #74, #77 ) ;
#157 = SHAPE_DEFINITION_REPRESENTATION ( #147, #154 ) ;
#158 = CALENDAR_DATE ( 2022, 16, 3 ) ;
#159 = APPLICATION_CONTEXT ( 'configuration controlled 3d designs of mechanical parts and assemblies' ) ;
#160 = ORIENTED_EDGE ( 'NONE', *, *, #16, .T. ) ;
#161 = CARTESIAN_POINT ( 'NONE',  ( 0.000000000000000000, 0.000000000000000000, 1.000000000000000000 ) ) ;
#162 = CARTESIAN_POINT ( 'NONE',  ( 0.000000000000000000, 0.000000000000000000, 0.000000000000000000 ) ) ;
#163 = APPROVAL ( #127, 'UNSPECIFIED' ) ;
#164 = COORDINATED_UNIVERSAL_TIME_OFFSET ( 5, 0, .BEHIND. ) ;
#165 = CARTESIAN_POINT ( 'NONE',  ( -7.500000000000000000, 0.000000000000000000, 1.000000000000000000 ) ) ;
#166 = DATE_AND_TIME ( #7, #82 ) ;
#167 = FACE_OUTER_BOUND ( 'NONE', #37, .T. ) ;
#168 = AXIS2_PLACEMENT_3D ( 'NONE', #93, #143, #20 ) ;
#169 = PERSON_AND_ORGANIZATION_ROLE ( 'creator' ) ;
#170 = DATE_AND_TIME ( #171, #125 ) ;
#171 = CALENDAR_DATE ( 2022, 16, 3 ) ;
#172 = DESIGN_CONTEXT ( 'detailed design', #159, 'design' ) ;
#173 =( GEOMETRIC_REPRESENTATION_CONTEXT ( 3 ) GLOBAL_UNCERTAINTY_ASSIGNED_CONTEXT ( ( #112 ) ) GLOBAL_UNIT_ASSIGNED_CONTEXT ( ( #73, #29, #31 ) ) REPRESENTATION_CONTEXT ( 'NONE', 'WORKASPACE' ) );
#174 = EDGE_CURVE ( 'NONE', #116, #14, #17, .T. ) ;
#175 = CALENDAR_DATE ( 2022, 16, 3 ) ;
ENDSEC;
END-ISO-10303-21;
