ISO-10303-21;
HEADER;
FILE_DESCRIPTION (( 'STEP AP203' ),
    '1' );
FILE_NAME ('Web Model 68810_68818.step',
    '2017-03-06T17:59:40',
    ( '' ),
    ( '' ),
    'SwSTEP 2.0',
    'SolidWorks 2016',
    '' );
FILE_SCHEMA (( 'CONFIG_CONTROL_DESIGN' ));
ENDSEC;

DATA;
#1 = ORIENTED_EDGE ( 'NONE', *, *, #2, .T. ) ;
#2 = EDGE_CURVE ( 'NONE', #103, #113, #31, .T. ) ;
#3 = PERSON_AND_ORGANIZATION ( #143, #98 ) ;
#4 = SECURITY_CLASSIFICATION ( '', '', #117 ) ;
#5 = VERTEX_POINT ( 'NONE', #12 ) ;
#6 = DATE_AND_TIME ( #29, #126 ) ;
#7 = CC_DESIGN_PERSON_AND_ORGANIZATION_ASSIGNMENT ( #86, #114, ( #131 ) ) ;
#8 = ORIENTED_EDGE ( 'NONE', *, *, #62, .F. ) ;
#9 = AXIS2_PLACEMENT_3D ( 'NONE', #134, #57, #145 ) ;
#10 = ORIENTED_EDGE ( 'NONE', *, *, #88, .F. ) ;
#11 = AXIS2_PLACEMENT_3D ( 'NONE', #48, #55, #66 ) ;
#12 = CARTESIAN_POINT ( 'NONE',  ( 16.00000000000000000, 1.959434878635765100E-015, 1.500000000000000000 ) ) ;
#13 = CIRCLE ( 'NONE', #11, 16.00000000000000000 ) ;
#14 = CC_DESIGN_PERSON_AND_ORGANIZATION_ASSIGNMENT ( #3, #116, ( #129 ) ) ;
#15 = COORDINATED_UNIVERSAL_TIME_OFFSET ( 5, 0, .BEHIND. ) ;
#16 = CC_DESIGN_PERSON_AND_ORGANIZATION_ASSIGNMENT ( #127, #102, ( #36 ) ) ;
#17 = COORDINATED_UNIVERSAL_TIME_OFFSET ( 5, 0, .BEHIND. ) ;
#18 =( LENGTH_UNIT ( ) NAMED_UNIT ( * ) SI_UNIT ( .MILLI., .METRE. ) );
#19 = APPROVAL_ROLE ( '' ) ;
#20 = APPROVAL_DATE_TIME ( #78, #25 ) ;
#21 = DIRECTION ( 'NONE',  ( 0.0000000000000000000, 0.0000000000000000000, 1.000000000000000000 ) ) ;
#22 = CC_DESIGN_PERSON_AND_ORGANIZATION_ASSIGNMENT ( #174, #54, ( #36 ) ) ;
#23 = CARTESIAN_POINT ( 'NONE',  ( 0.0000000000000000000, 0.0000000000000000000, 1.500000000000000000 ) ) ;
#24 = EDGE_CURVE ( 'NONE', #5, #103, #45, .T. ) ;
#25 = APPROVAL ( #90, 'UNSPECIFIED' ) ;
#26 = DIRECTION ( 'NONE',  ( -0.0000000000000000000, -0.0000000000000000000, -1.000000000000000000 ) ) ;
#27 = ADVANCED_BREP_SHAPE_REPRESENTATION ( 'Web Model 68810_68818', ( #46, #99 ), #137 ) ;
#28 = APPROVAL_ROLE ( '' ) ;
#29 = CALENDAR_DATE ( 2017, 6, 3 ) ;
#30 = DIRECTION ( 'NONE',  ( 0.0000000000000000000, 0.0000000000000000000, 1.000000000000000000 ) ) ;
#31 = CIRCLE ( 'NONE', #144, 16.00000000000000000 ) ;
#32 = APPROVAL_ROLE ( '' ) ;
#33 = VECTOR ( 'NONE', #26, 1000.000000000000000 ) ;
#34 = CIRCLE ( 'NONE', #9, 16.00000000000000000 ) ;
#35 = APPROVAL_PERSON_ORGANIZATION ( #119, #69, #32 ) ;
#36 = PRODUCT_DEFINITION_FORMATION_WITH_SPECIFIED_SOURCE ( 'ANY', '', #131, .NOT_KNOWN. ) ;
#37 = AXIS2_PLACEMENT_3D ( 'NONE', #43, #79, #172 ) ;
#38 = CARTESIAN_POINT ( 'NONE',  ( 0.0000000000000000000, 0.0000000000000000000, -1.500000000000000000 ) ) ;
#39 = CARTESIAN_POINT ( 'NONE',  ( -16.00000000000000000, 0.0000000000000000000, -1.500000000000000000 ) ) ;
#40 = DIRECTION ( 'NONE',  ( 1.000000000000000000, 0.0000000000000000000, -0.0000000000000000000 ) ) ;
#41 = VERTEX_POINT ( 'NONE', #165 ) ;
#42 = AXIS2_PLACEMENT_3D ( 'NONE', #23, #30, #73 ) ;
#43 = CARTESIAN_POINT ( 'NONE',  ( 0.0000000000000000000, 0.0000000000000000000, 1.500000000000000000 ) ) ;
#44 = CC_DESIGN_APPROVAL ( #69, ( #129 ) ) ;
#45 = LINE ( 'NONE', #67, #33 ) ;
#46 = MANIFOLD_SOLID_BREP ( 'Boss-Extrude1', #82 ) ;
#47 = CALENDAR_DATE ( 2017, 6, 3 ) ;
#48 = CARTESIAN_POINT ( 'NONE',  ( 0.0000000000000000000, 0.0000000000000000000, -1.500000000000000000 ) ) ;
#49 = LOCAL_TIME ( 12, 59, 40.00000000000000000, #115 ) ;
#50 = CARTESIAN_POINT ( 'NONE',  ( 16.00000000000000000, 1.959434878635765100E-015, -1.500000000000000000 ) ) ;
#51 = APPLICATION_PROTOCOL_DEFINITION ( 'international standard', 'config_control_design', 1994, #61 ) ;
#52 = EDGE_LOOP ( 'NONE', ( #166, #169 ) ) ;
#53 = ORIENTED_EDGE ( 'NONE', *, *, #160, .F. ) ;
#54 = PERSON_AND_ORGANIZATION_ROLE ( 'design_supplier' ) ;
#55 = DIRECTION ( 'NONE',  ( 0.0000000000000000000, 0.0000000000000000000, 1.000000000000000000 ) ) ;
#56 = CC_DESIGN_SECURITY_CLASSIFICATION ( #4, ( #36 ) ) ;
#57 = DIRECTION ( 'NONE',  ( 0.0000000000000000000, 0.0000000000000000000, 1.000000000000000000 ) ) ;
#58 = MECHANICAL_CONTEXT ( 'NONE', #61, 'mechanical' ) ;
#59 = UNCERTAINTY_MEASURE_WITH_UNIT (LENGTH_MEASURE( 1.000000000000000100E-005 ), #18, 'distance_accuracy_value', 'NONE');
#60 = PERSON_AND_ORGANIZATION_ROLE ( 'classification_officer' ) ;
#61 = APPLICATION_CONTEXT ( 'configuration controlled 3d designs of mechanical parts and assemblies' ) ;
#62 = EDGE_CURVE ( 'NONE', #113, #103, #13, .T. ) ;
#63 = APPROVAL ( #76, 'UNSPECIFIED' ) ;
#64 = CIRCLE ( 'NONE', #42, 16.00000000000000000 ) ;
#65 = PERSON_AND_ORGANIZATION ( #143, #98 ) ;
#66 = DIRECTION ( 'NONE',  ( 1.000000000000000000, 0.0000000000000000000, 0.0000000000000000000 ) ) ;
#67 = CARTESIAN_POINT ( 'NONE',  ( 16.00000000000000000, 1.959434878635765100E-015, 1.500000000000000000 ) ) ;
#68 = LINE ( 'NONE', #71, #110 ) ;
#69 = APPROVAL ( #93, 'UNSPECIFIED' ) ;
#70 = DIRECTION ( 'NONE',  ( 1.000000000000000000, 0.0000000000000000000, 0.0000000000000000000 ) ) ;
#71 = CARTESIAN_POINT ( 'NONE',  ( -16.00000000000000000, 0.0000000000000000000, 1.500000000000000000 ) ) ;
#72 = ADVANCED_FACE ( 'NONE', ( #151 ), #133, .T. ) ;
#73 = DIRECTION ( 'NONE',  ( 1.000000000000000000, 0.0000000000000000000, 0.0000000000000000000 ) ) ;
#74 = DATE_TIME_ROLE ( 'classification_date' ) ;
#75 = CC_DESIGN_APPROVAL ( #25, ( #4 ) ) ;
#76 = APPROVAL_STATUS ( 'not_yet_approved' ) ;
#77 = CALENDAR_DATE ( 2017, 6, 3 ) ;
#78 = DATE_AND_TIME ( #47, #163 ) ;
#79 = DIRECTION ( 'NONE',  ( -0.0000000000000000000, -0.0000000000000000000, -1.000000000000000000 ) ) ;
#80 = EDGE_LOOP ( 'NONE', ( #122, #155, #1, #53 ) ) ;
#81 = COORDINATED_UNIVERSAL_TIME_OFFSET ( 5, 0, .BEHIND. ) ;
#82 = CLOSED_SHELL ( 'NONE', ( #157, #72, #120, #104 ) ) ;
#83 = PRODUCT_DEFINITION_SHAPE ( 'NONE', 'NONE',  #129 ) ;
#84 = LOCAL_TIME ( 12, 59, 40.00000000000000000, #17 ) ;
#85 = AXIS2_PLACEMENT_3D ( 'NONE', #138, #124, #106 ) ;
#86 = PERSON_AND_ORGANIZATION ( #143, #98 ) ;
#87 = CALENDAR_DATE ( 2017, 6, 3 ) ;
#88 = EDGE_CURVE ( 'NONE', #41, #5, #64, .T. ) ;
#89 = DATE_AND_TIME ( #111, #171 ) ;
#90 = APPROVAL_STATUS ( 'not_yet_approved' ) ;
#91 =( NAMED_UNIT ( * ) PLANE_ANGLE_UNIT ( ) SI_UNIT ( $, .RADIAN. ) );
#92 = APPROVAL_PERSON_ORGANIZATION ( #121, #25, #28 ) ;
#93 = APPROVAL_STATUS ( 'not_yet_approved' ) ;
#94 = ORIENTED_EDGE ( 'NONE', *, *, #24, .F. ) ;
#95 = CC_DESIGN_PERSON_AND_ORGANIZATION_ASSIGNMENT ( #65, #60, ( #4 ) ) ;
#96 = ORIENTED_EDGE ( 'NONE', *, *, #62, .T. ) ;
#97 = APPROVAL_DATE_TIME ( #89, #63 ) ;
#98 = ORGANIZATION ( 'UNSPECIFIED', 'UNSPECIFIED', '' ) ;
#99 = AXIS2_PLACEMENT_3D ( 'NONE', #140, #128, #146 ) ;
#100 = FACE_OUTER_BOUND ( 'NONE', #80, .T. ) ;
#101 = DIRECTION ( 'NONE',  ( 1.000000000000000000, 0.0000000000000000000, -0.0000000000000000000 ) ) ;
#102 = PERSON_AND_ORGANIZATION_ROLE ( 'creator' ) ;
#103 = VERTEX_POINT ( 'NONE', #50 ) ;
#104 = ADVANCED_FACE ( 'NONE', ( #162 ), #154, .F. ) ;
#105 = ORIENTED_EDGE ( 'NONE', *, *, #2, .F. ) ;
#106 = DIRECTION ( 'NONE',  ( -1.000000000000000000, 0.0000000000000000000, 0.0000000000000000000 ) ) ;
#107 = CC_DESIGN_APPROVAL ( #63, ( #36 ) ) ;
#108 = APPROVAL_DATE_TIME ( #6, #69 ) ;
#109 = DIRECTION ( 'NONE',  ( 0.0000000000000000000, 0.0000000000000000000, 1.000000000000000000 ) ) ;
#110 = VECTOR ( 'NONE', #158, 1000.000000000000000 ) ;
#111 = CALENDAR_DATE ( 2017, 6, 3 ) ;
#112 = APPLICATION_PROTOCOL_DEFINITION ( 'international standard', 'config_control_design', 1994, #130 ) ;
#113 = VERTEX_POINT ( 'NONE', #39 ) ;
#114 = PERSON_AND_ORGANIZATION_ROLE ( 'design_owner' ) ;
#115 = COORDINATED_UNIVERSAL_TIME_OFFSET ( 5, 0, .BEHIND. ) ;
#116 = PERSON_AND_ORGANIZATION_ROLE ( 'creator' ) ;
#117 = SECURITY_CLASSIFICATION_LEVEL ( 'unclassified' ) ;
#118 =( NAMED_UNIT ( * ) SI_UNIT ( $, .STERADIAN. ) SOLID_ANGLE_UNIT ( ) );
#119 = PERSON_AND_ORGANIZATION ( #143, #98 ) ;
#120 = ADVANCED_FACE ( 'NONE', ( #147 ), #161, .T. ) ;
#121 = PERSON_AND_ORGANIZATION ( #143, #98 ) ;
#122 = ORIENTED_EDGE ( 'NONE', *, *, #164, .F. ) ;
#123 = PRODUCT_RELATED_PRODUCT_CATEGORY ( 'detail', '', ( #131 ) ) ;
#124 = DIRECTION ( 'NONE',  ( -0.0000000000000000000, -0.0000000000000000000, -1.000000000000000000 ) ) ;
#125 = CC_DESIGN_DATE_AND_TIME_ASSIGNMENT ( #153, #74, ( #4 ) ) ;
#126 = LOCAL_TIME ( 12, 59, 40.00000000000000000, #15 ) ;
#127 = PERSON_AND_ORGANIZATION ( #143, #98 ) ;
#128 = DIRECTION ( 'NONE',  ( 0.0000000000000000000, 0.0000000000000000000, 1.000000000000000000 ) ) ;
#129 = PRODUCT_DEFINITION ( 'UNKNOWN', '', #36, #167 ) ;
#130 = APPLICATION_CONTEXT ( 'configuration controlled 3d designs of mechanical parts and assemblies' ) ;
#131 = PRODUCT ( 'Web Model 68810_68818', 'Web Model 68810_68818', '', ( #58 ) ) ;
#132 = DATE_TIME_ROLE ( 'creation_date' ) ;
#133 = CYLINDRICAL_SURFACE ( 'NONE', #85, 16.00000000000000000 ) ;
#134 = CARTESIAN_POINT ( 'NONE',  ( 0.0000000000000000000, 0.0000000000000000000, 1.500000000000000000 ) ) ;
#135 = PERSON_AND_ORGANIZATION ( #143, #98 ) ;
#136 = SHAPE_DEFINITION_REPRESENTATION ( #83, #27 ) ;
#137 =( GEOMETRIC_REPRESENTATION_CONTEXT ( 3 ) GLOBAL_UNCERTAINTY_ASSIGNED_CONTEXT ( ( #59 ) ) GLOBAL_UNIT_ASSIGNED_CONTEXT ( ( #18, #91, #118 ) ) REPRESENTATION_CONTEXT ( 'NONE', 'WORKASPACE' ) );
#138 = CARTESIAN_POINT ( 'NONE',  ( 0.0000000000000000000, 0.0000000000000000000, 1.500000000000000000 ) ) ;
#139 = APPROVAL_PERSON_ORGANIZATION ( #135, #63, #19 ) ;
#140 = CARTESIAN_POINT ( 'NONE',  ( 0.0000000000000000000, 0.0000000000000000000, 0.0000000000000000000 ) ) ;
#141 = ORIENTED_EDGE ( 'NONE', *, *, #160, .T. ) ;
#142 = DATE_AND_TIME ( #87, #84 ) ;
#143 = PERSON ( 'UNSPECIFIED', 'UNSPECIFIED', 'UNSPECIFIED', ('UNSPECIFIED'), ('UNSPECIFIED'), ('UNSPECIFIED') ) ;
#144 = AXIS2_PLACEMENT_3D ( 'NONE', #175, #109, #70 ) ;
#145 = DIRECTION ( 'NONE',  ( 1.000000000000000000, 0.0000000000000000000, 0.0000000000000000000 ) ) ;
#146 = DIRECTION ( 'NONE',  ( 1.000000000000000000, 0.0000000000000000000, 0.0000000000000000000 ) ) ;
#147 = FACE_OUTER_BOUND ( 'NONE', #52, .T. ) ;
#148 = EDGE_LOOP ( 'NONE', ( #94, #10, #141, #96 ) ) ;
#149 = EDGE_LOOP ( 'NONE', ( #8, #105 ) ) ;
#150 = COORDINATED_UNIVERSAL_TIME_OFFSET ( 5, 0, .BEHIND. ) ;
#151 = FACE_OUTER_BOUND ( 'NONE', #148, .T. ) ;
#152 = AXIS2_PLACEMENT_3D ( 'NONE', #38, #21, #101 ) ;
#153 = DATE_AND_TIME ( #77, #49 ) ;
#154 = PLANE ( 'NONE',  #152 ) ;
#155 = ORIENTED_EDGE ( 'NONE', *, *, #24, .T. ) ;
#156 = AXIS2_PLACEMENT_3D ( 'NONE', #170, #168, #40 ) ;
#157 = ADVANCED_FACE ( 'NONE', ( #100 ), #159, .T. ) ;
#158 = DIRECTION ( 'NONE',  ( -0.0000000000000000000, -0.0000000000000000000, -1.000000000000000000 ) ) ;
#159 = CYLINDRICAL_SURFACE ( 'NONE', #37, 16.00000000000000000 ) ;
#160 = EDGE_CURVE ( 'NONE', #41, #113, #68, .T. ) ;
#161 = PLANE ( 'NONE',  #156 ) ;
#162 = FACE_OUTER_BOUND ( 'NONE', #149, .T. ) ;
#163 = LOCAL_TIME ( 12, 59, 40.00000000000000000, #81 ) ;
#164 = EDGE_CURVE ( 'NONE', #5, #41, #34, .T. ) ;
#165 = CARTESIAN_POINT ( 'NONE',  ( -16.00000000000000000, 0.0000000000000000000, 1.500000000000000000 ) ) ;
#166 = ORIENTED_EDGE ( 'NONE', *, *, #88, .T. ) ;
#167 = DESIGN_CONTEXT ( 'detailed design', #130, 'design' ) ;
#168 = DIRECTION ( 'NONE',  ( 0.0000000000000000000, 0.0000000000000000000, 1.000000000000000000 ) ) ;
#169 = ORIENTED_EDGE ( 'NONE', *, *, #164, .T. ) ;
#170 = CARTESIAN_POINT ( 'NONE',  ( 0.0000000000000000000, 0.0000000000000000000, 1.500000000000000000 ) ) ;
#171 = LOCAL_TIME ( 12, 59, 40.00000000000000000, #150 ) ;
#172 = DIRECTION ( 'NONE',  ( -1.000000000000000000, 0.0000000000000000000, 0.0000000000000000000 ) ) ;
#173 = CC_DESIGN_DATE_AND_TIME_ASSIGNMENT ( #142, #132, ( #129 ) ) ;
#174 = PERSON_AND_ORGANIZATION ( #143, #98 ) ;
#175 = CARTESIAN_POINT ( 'NONE',  ( 0.0000000000000000000, 0.0000000000000000000, -1.500000000000000000 ) ) ;
ENDSEC;
END-ISO-10303-21;
