ISO-10303-21;
HEADER;
FILE_DESCRIPTION (( 'STEP AP203' ),
    '1' );
FILE_NAME ('Web Model 12293_12293.step',
    '2019-01-23T20:54:58',
    ( '' ),
    ( '' ),
    'SwSTEP 2.0',
    'SolidWorks 2016',
    '' );
FILE_SCHEMA (( 'CONFIG_CONTROL_DESIGN' ));
ENDSEC;

DATA;
#1 = PLANE ( 'NONE',  #53 ) ;
#2 = VECTOR ( 'NONE', #39, 1000.000000000000000 ) ;
#3 = CARTESIAN_POINT ( 'NONE',  ( -10.00000000000000200, -5.000000000000000000, 0.05000000000000000300 ) ) ;
#4 = ORIENTED_EDGE ( 'NONE', *, *, #182, .T. ) ;
#5 = PERSON_AND_ORGANIZATION ( #25, #116 ) ;
#6 = SECURITY_CLASSIFICATION ( '', '', #153 ) ;
#7 = LINE ( 'NONE', #226, #151 ) ;
#8 = APPROVAL_STATUS ( 'not_yet_approved' ) ;
#9 = CARTESIAN_POINT ( 'NONE',  ( 9.999999999999998200, 5.000000000000000000, 0.05000000000000000300 ) ) ;
#10 = DIRECTION ( 'NONE',  ( 0.0000000000000000000, 1.000000000000000000, 0.0000000000000000000 ) ) ;
#11 = VECTOR ( 'NONE', #100, 1000.000000000000000 ) ;
#12 = CARTESIAN_POINT ( 'NONE',  ( -10.00000000000000200, 5.000000000000000000, 0.05000000000000000300 ) ) ;
#13 = EDGE_CURVE ( 'NONE', #129, #156, #168, .T. ) ;
#14 = APPROVAL_STATUS ( 'not_yet_approved' ) ;
#15 = COORDINATED_UNIVERSAL_TIME_OFFSET ( 5, 0, .BEHIND. ) ;
#16 = VECTOR ( 'NONE', #159, 1000.000000000000000 ) ;
#17 = ORIENTED_EDGE ( 'NONE', *, *, #152, .T. ) ;
#18 = CC_DESIGN_PERSON_AND_ORGANIZATION_ASSIGNMENT ( #115, #132, ( #6 ) ) ;
#19 = CC_DESIGN_APPROVAL ( #21, ( #206 ) ) ;
#20 = ADVANCED_FACE ( 'NONE', ( #148 ), #209, .T. ) ;
#21 = APPROVAL ( #183, 'UNSPECIFIED' ) ;
#22 = ORIENTED_EDGE ( 'NONE', *, *, #214, .T. ) ;
#23 = CARTESIAN_POINT ( 'NONE',  ( 9.999999999999998200, -5.000000000000000000, 0.05000000000000000300 ) ) ;
#24 = PERSON_AND_ORGANIZATION ( #25, #116 ) ;
#25 = PERSON ( 'UNSPECIFIED', 'UNSPECIFIED', 'UNSPECIFIED', ('UNSPECIFIED'), ('UNSPECIFIED'), ('UNSPECIFIED') ) ;
#26 = APPROVAL_ROLE ( '' ) ;
#27 = APPROVAL_PERSON_ORGANIZATION ( #139, #21, #225 ) ;
#28 = DIRECTION ( 'NONE',  ( 0.0000000000000000000, 0.0000000000000000000, 1.000000000000000000 ) ) ;
#29 = VECTOR ( 'NONE', #10, 1000.000000000000000 ) ;
#30 = AXIS2_PLACEMENT_3D ( 'NONE', #190, #176, #42 ) ;
#31 = ORIENTED_EDGE ( 'NONE', *, *, #33, .T. ) ;
#32 = PERSON_AND_ORGANIZATION_ROLE ( 'design_owner' ) ;
#33 = EDGE_CURVE ( 'NONE', #156, #221, #96, .T. ) ;
#34 = ORIENTED_EDGE ( 'NONE', *, *, #199, .T. ) ;
#35 = ORIENTED_EDGE ( 'NONE', *, *, #13, .F. ) ;
#36 = VERTEX_POINT ( 'NONE', #60 ) ;
#37 = LINE ( 'NONE', #227, #74 ) ;
#38 = EDGE_LOOP ( 'NONE', ( #73, #82, #205, #161 ) ) ;
#39 = DIRECTION ( 'NONE',  ( -0.0000000000000000000, -1.000000000000000000, -0.0000000000000000000 ) ) ;
#40 = CC_DESIGN_DATE_AND_TIME_ASSIGNMENT ( #175, #167, ( #6 ) ) ;
#41 = CARTESIAN_POINT ( 'NONE',  ( 9.999999999999998200, -5.000000000000000000, -0.05000000000000000300 ) ) ;
#42 = DIRECTION ( 'NONE',  ( 0.0000000000000000000, 0.0000000000000000000, -1.000000000000000000 ) ) ;
#43 = EDGE_CURVE ( 'NONE', #156, #95, #52, .T. ) ;
#44 = APPROVAL_DATE_TIME ( #191, #230 ) ;
#45 = FACE_OUTER_BOUND ( 'NONE', #51, .T. ) ;
#46 = MECHANICAL_CONTEXT ( 'NONE', #147, 'mechanical' ) ;
#47 = DIRECTION ( 'NONE',  ( -1.000000000000000000, 0.0000000000000000000, 0.0000000000000000000 ) ) ;
#48 = DIRECTION ( 'NONE',  ( 0.0000000000000000000, 1.000000000000000000, 0.0000000000000000000 ) ) ;
#49 = DIRECTION ( 'NONE',  ( 0.0000000000000000000, 0.0000000000000000000, 1.000000000000000000 ) ) ;
#50 = APPLICATION_PROTOCOL_DEFINITION ( 'international standard', 'config_control_design', 1994, #147 ) ;
#51 = EDGE_LOOP ( 'NONE', ( #22, #133, #125, #119 ) ) ;
#52 = LINE ( 'NONE', #192, #16 ) ;
#53 = AXIS2_PLACEMENT_3D ( 'NONE', #160, #47, #28 ) ;
#54 = VERTEX_POINT ( 'NONE', #224 ) ;
#55 = FACE_OUTER_BOUND ( 'NONE', #94, .T. ) ;
#56 = EDGE_CURVE ( 'NONE', #145, #54, #204, .T. ) ;
#57 = EDGE_LOOP ( 'NONE', ( #177, #87, #172, #70 ) ) ;
#58 = CLOSED_SHELL ( 'NONE', ( #111, #184, #89, #234, #188, #20 ) ) ;
#59 = DIRECTION ( 'NONE',  ( -0.0000000000000000000, -0.0000000000000000000, -1.000000000000000000 ) ) ;
#60 = CARTESIAN_POINT ( 'NONE',  ( -10.00000000000000200, 5.000000000000000000, -0.05000000000000000300 ) ) ;
#61 = PERSON_AND_ORGANIZATION ( #25, #116 ) ;
#62 = CARTESIAN_POINT ( 'NONE',  ( -10.00000000000000200, -5.000000000000000000, 0.05000000000000000300 ) ) ;
#63 = PLANE ( 'NONE',  #72 ) ;
#64 = AXIS2_PLACEMENT_3D ( 'NONE', #105, #49, #126 ) ;
#65 = DIRECTION ( 'NONE',  ( -1.000000000000000000, -0.0000000000000000000, -0.0000000000000000000 ) ) ;
#66 = CC_DESIGN_SECURITY_CLASSIFICATION ( #6, ( #154 ) ) ;
#67 = APPLICATION_CONTEXT ( 'configuration controlled 3d designs of mechanical parts and assemblies' ) ;
#68 = COORDINATED_UNIVERSAL_TIME_OFFSET ( 5, 0, .BEHIND. ) ;
#69 = ORIENTED_EDGE ( 'NONE', *, *, #107, .T. ) ;
#70 = ORIENTED_EDGE ( 'NONE', *, *, #56, .T. ) ;
#71 = LOCAL_TIME ( 15, 54, 58.00000000000000000, #127 ) ;
#72 = AXIS2_PLACEMENT_3D ( 'NONE', #164, #196, #86 ) ;
#73 = ORIENTED_EDGE ( 'NONE', *, *, #152, .F. ) ;
#74 = VECTOR ( 'NONE', #123, 1000.000000000000000 ) ;
#75 = EDGE_CURVE ( 'NONE', #36, #221, #110, .T. ) ;
#76 = DIRECTION ( 'NONE',  ( -1.000000000000000000, 0.0000000000000000000, -0.0000000000000000000 ) ) ;
#77 = ADVANCED_BREP_SHAPE_REPRESENTATION ( 'Web Model 12293_12293', ( #207, #64 ), #220 ) ;
#78 = ORIENTED_EDGE ( 'NONE', *, *, #214, .F. ) ;
#79 = DIRECTION ( 'NONE',  ( -0.0000000000000000000, -0.0000000000000000000, -1.000000000000000000 ) ) ;
#80 = CC_DESIGN_PERSON_AND_ORGANIZATION_ASSIGNMENT ( #5, #217, ( #154 ) ) ;
#81 = CARTESIAN_POINT ( 'NONE',  ( 0.0000000000000000000, 0.0000000000000000000, 0.05000000000000000300 ) ) ;
#82 = ORIENTED_EDGE ( 'NONE', *, *, #107, .F. ) ;
#83 = CARTESIAN_POINT ( 'NONE',  ( -10.00000000000000200, 5.000000000000000000, 0.05000000000000000300 ) ) ;
#84 = CARTESIAN_POINT ( 'NONE',  ( 9.999999999999998200, -5.000000000000000000, 0.05000000000000000300 ) ) ;
#85 = DATE_AND_TIME ( #91, #200 ) ;
#86 = DIRECTION ( 'NONE',  ( 0.0000000000000000000, -0.0000000000000000000, -1.000000000000000000 ) ) ;
#87 = ORIENTED_EDGE ( 'NONE', *, *, #182, .F. ) ;
#88 = LINE ( 'NONE', #181, #29 ) ;
#89 = ADVANCED_FACE ( 'NONE', ( #55 ), #210, .F. ) ;
#90 = PRODUCT_RELATED_PRODUCT_CATEGORY ( 'detail', '', ( #106 ) ) ;
#91 = CALENDAR_DATE ( 2019, 23, 1 ) ;
#92 = CC_DESIGN_PERSON_AND_ORGANIZATION_ASSIGNMENT ( #166, #198, ( #154 ) ) ;
#93 = FACE_OUTER_BOUND ( 'NONE', #57, .T. ) ;
#94 = EDGE_LOOP ( 'NONE', ( #171, #202, #35, #4 ) ) ;
#95 = VERTEX_POINT ( 'NONE', #23 ) ;
#96 = LINE ( 'NONE', #97, #208 ) ;
#97 = CARTESIAN_POINT ( 'NONE',  ( -10.00000000000000200, -5.000000000000000000, 0.05000000000000000300 ) ) ;
#98 = CARTESIAN_POINT ( 'NONE',  ( 9.999999999999998200, 5.000000000000000000, 0.05000000000000000300 ) ) ;
#99 = AXIS2_PLACEMENT_3D ( 'NONE', #121, #48, #102 ) ;
#100 = DIRECTION ( 'NONE',  ( 0.0000000000000000000, 1.000000000000000000, 0.0000000000000000000 ) ) ;
#101 = VECTOR ( 'NONE', #194, 1000.000000000000000 ) ;
#102 = DIRECTION ( 'NONE',  ( 0.0000000000000000000, -0.0000000000000000000, 1.000000000000000000 ) ) ;
#103 = PLANE ( 'NONE',  #99 ) ;
#104 = CARTESIAN_POINT ( 'NONE',  ( -10.00000000000000200, -5.000000000000000000, -0.05000000000000000300 ) ) ;
#105 = CARTESIAN_POINT ( 'NONE',  ( 0.0000000000000000000, 0.0000000000000000000, 0.0000000000000000000 ) ) ;
#106 = PRODUCT ( 'Web Model 12293_12293', 'Web Model 12293_12293', '', ( #46 ) ) ;
#107 = EDGE_CURVE ( 'NONE', #221, #228, #163, .T. ) ;
#108 = EDGE_LOOP ( 'NONE', ( #17, #222, #78, #34 ) ) ;
#109 = DATE_AND_TIME ( #215, #71 ) ;
#110 = LINE ( 'NONE', #118, #2 ) ;
#111 = ADVANCED_FACE ( 'NONE', ( #201 ), #1, .F. ) ;
#112 = APPROVAL ( #14, 'UNSPECIFIED' ) ;
#113 = VECTOR ( 'NONE', #59, 1000.000000000000000 ) ;
#114 = CC_DESIGN_PERSON_AND_ORGANIZATION_ASSIGNMENT ( #24, #32, ( #106 ) ) ;
#115 = PERSON_AND_ORGANIZATION ( #25, #116 ) ;
#116 = ORGANIZATION ( 'UNSPECIFIED', 'UNSPECIFIED', '' ) ;
#117 = LOCAL_TIME ( 15, 54, 58.00000000000000000, #169 ) ;
#118 = CARTESIAN_POINT ( 'NONE',  ( -10.00000000000000200, -5.000000000000000000, -0.05000000000000000300 ) ) ;
#119 = ORIENTED_EDGE ( 'NONE', *, *, #43, .T. ) ;
#120 = DATE_TIME_ROLE ( 'creation_date' ) ;
#121 = CARTESIAN_POINT ( 'NONE',  ( -10.00000000000000200, -5.000000000000000000, 0.05000000000000000300 ) ) ;
#122 = LINE ( 'NONE', #12, #101 ) ;
#123 = DIRECTION ( 'NONE',  ( -1.000000000000000000, -0.0000000000000000000, -0.0000000000000000000 ) ) ;
#124 =( NAMED_UNIT ( * ) SI_UNIT ( $, .STERADIAN. ) SOLID_ANGLE_UNIT ( ) );
#125 = ORIENTED_EDGE ( 'NONE', *, *, #13, .T. ) ;
#126 = DIRECTION ( 'NONE',  ( 1.000000000000000000, 0.0000000000000000000, 0.0000000000000000000 ) ) ;
#127 = COORDINATED_UNIVERSAL_TIME_OFFSET ( 5, 0, .BEHIND. ) ;
#128 = CC_DESIGN_PERSON_AND_ORGANIZATION_ASSIGNMENT ( #179, #178, ( #206 ) ) ;
#129 = VERTEX_POINT ( 'NONE', #83 ) ;
#130 = LOCAL_TIME ( 15, 54, 58.00000000000000000, #15 ) ;
#131 = VECTOR ( 'NONE', #193, 1000.000000000000000 ) ;
#132 = PERSON_AND_ORGANIZATION_ROLE ( 'classification_officer' ) ;
#133 = ORIENTED_EDGE ( 'NONE', *, *, #185, .T. ) ;
#134 = PRODUCT_DEFINITION_SHAPE ( 'NONE', 'NONE',  #206 ) ;
#135 = APPROVAL_DATE_TIME ( #85, #112 ) ;
#136 = UNCERTAINTY_MEASURE_WITH_UNIT (LENGTH_MEASURE( 1.000000000000000100E-005 ), #229, 'distance_accuracy_value', 'NONE');
#137 = CC_DESIGN_APPROVAL ( #112, ( #6 ) ) ;
#138 = CALENDAR_DATE ( 2019, 23, 1 ) ;
#139 = PERSON_AND_ORGANIZATION ( #25, #116 ) ;
#140 = CARTESIAN_POINT ( 'NONE',  ( -10.00000000000000200, -5.000000000000000000, -0.05000000000000000300 ) ) ;
#141 = DIRECTION ( 'NONE',  ( -0.0000000000000000000, -1.000000000000000000, -0.0000000000000000000 ) ) ;
#142 = CC_DESIGN_DATE_AND_TIME_ASSIGNMENT ( #146, #120, ( #206 ) ) ;
#143 = SHAPE_DEFINITION_REPRESENTATION ( #134, #77 ) ;
#144 = DIRECTION ( 'NONE',  ( -1.000000000000000000, 0.0000000000000000000, -0.0000000000000000000 ) ) ;
#145 = VERTEX_POINT ( 'NONE', #9 ) ;
#146 = DATE_AND_TIME ( #203, #117 ) ;
#147 = APPLICATION_CONTEXT ( 'configuration controlled 3d designs of mechanical parts and assemblies' ) ;
#148 = FACE_OUTER_BOUND ( 'NONE', #38, .T. ) ;
#149 = APPROVAL_ROLE ( '' ) ;
#150 = APPROVAL_PERSON_ORGANIZATION ( #219, #230, #26 ) ;
#151 = VECTOR ( 'NONE', #65, 1000.000000000000000 ) ;
#152 = EDGE_CURVE ( 'NONE', #228, #54, #186, .T. ) ;
#153 = SECURITY_CLASSIFICATION_LEVEL ( 'unclassified' ) ;
#154 = PRODUCT_DEFINITION_FORMATION_WITH_SPECIFIED_SOURCE ( 'ANY', '', #106, .NOT_KNOWN. ) ;
#155 = APPROVAL_DATE_TIME ( #109, #21 ) ;
#156 = VERTEX_POINT ( 'NONE', #62 ) ;
#157 = CARTESIAN_POINT ( 'NONE',  ( 0.0000000000000000000, 0.0000000000000000000, -0.05000000000000000300 ) ) ;
#158 = DIRECTION ( 'NONE',  ( 0.0000000000000000000, 0.0000000000000000000, -1.000000000000000000 ) ) ;
#159 = DIRECTION ( 'NONE',  ( 1.000000000000000000, 0.0000000000000000000, 0.0000000000000000000 ) ) ;
#160 = CARTESIAN_POINT ( 'NONE',  ( 9.999999999999998200, -5.000000000000000000, 0.05000000000000000300 ) ) ;
#161 = ORIENTED_EDGE ( 'NONE', *, *, #235, .F. ) ;
#162 = DIRECTION ( 'NONE',  ( 0.0000000000000000000, 0.0000000000000000000, -1.000000000000000000 ) ) ;
#163 = LINE ( 'NONE', #140, #131 ) ;
#164 = CARTESIAN_POINT ( 'NONE',  ( -10.00000000000000200, 5.000000000000000000, 0.05000000000000000300 ) ) ;
#165 = APPLICATION_PROTOCOL_DEFINITION ( 'international standard', 'config_control_design', 1994, #67 ) ;
#166 = PERSON_AND_ORGANIZATION ( #25, #116 ) ;
#167 = DATE_TIME_ROLE ( 'classification_date' ) ;
#168 = LINE ( 'NONE', #3, #174 ) ;
#169 = COORDINATED_UNIVERSAL_TIME_OFFSET ( 5, 0, .BEHIND. ) ;
#170 = DESIGN_CONTEXT ( 'detailed design', #67, 'design' ) ;
#171 = ORIENTED_EDGE ( 'NONE', *, *, #75, .T. ) ;
#172 = ORIENTED_EDGE ( 'NONE', *, *, #185, .F. ) ;
#173 = COORDINATED_UNIVERSAL_TIME_OFFSET ( 5, 0, .BEHIND. ) ;
#174 = VECTOR ( 'NONE', #141, 1000.000000000000000 ) ;
#175 = DATE_AND_TIME ( #138, #130 ) ;
#176 = DIRECTION ( 'NONE',  ( 1.000000000000000000, 0.0000000000000000000, 0.0000000000000000000 ) ) ;
#177 = ORIENTED_EDGE ( 'NONE', *, *, #235, .T. ) ;
#178 = PERSON_AND_ORGANIZATION_ROLE ( 'creator' ) ;
#179 = PERSON_AND_ORGANIZATION ( #25, #116 ) ;
#180 =( NAMED_UNIT ( * ) PLANE_ANGLE_UNIT ( ) SI_UNIT ( $, .RADIAN. ) );
#181 = CARTESIAN_POINT ( 'NONE',  ( 9.999999999999998200, -5.000000000000000000, 0.05000000000000000300 ) ) ;
#182 = EDGE_CURVE ( 'NONE', #129, #36, #122, .T. ) ;
#183 = APPROVAL_STATUS ( 'not_yet_approved' ) ;
#184 = ADVANCED_FACE ( 'NONE', ( #93 ), #63, .F. ) ;
#185 = EDGE_CURVE ( 'NONE', #145, #129, #7, .T. ) ;
#186 = LINE ( 'NONE', #41, #11 ) ;
#187 = ORIENTED_EDGE ( 'NONE', *, *, #199, .F. ) ;
#188 = ADVANCED_FACE ( 'NONE', ( #45 ), #197, .F. ) ;
#189 = FACE_OUTER_BOUND ( 'NONE', #236, .T. ) ;
#190 = CARTESIAN_POINT ( 'NONE',  ( -10.00000000000000200, -5.000000000000000000, 0.05000000000000000300 ) ) ;
#191 = DATE_AND_TIME ( #223, #218 ) ;
#192 = CARTESIAN_POINT ( 'NONE',  ( -10.00000000000000200, -5.000000000000000000, 0.05000000000000000300 ) ) ;
#193 = DIRECTION ( 'NONE',  ( 1.000000000000000000, 0.0000000000000000000, 0.0000000000000000000 ) ) ;
#194 = DIRECTION ( 'NONE',  ( -0.0000000000000000000, -0.0000000000000000000, -1.000000000000000000 ) ) ;
#195 = AXIS2_PLACEMENT_3D ( 'NONE', #81, #162, #144 ) ;
#196 = DIRECTION ( 'NONE',  ( 0.0000000000000000000, -1.000000000000000000, 0.0000000000000000000 ) ) ;
#197 = PLANE ( 'NONE',  #195 ) ;
#198 = PERSON_AND_ORGANIZATION_ROLE ( 'design_supplier' ) ;
#199 = EDGE_CURVE ( 'NONE', #95, #228, #216, .T. ) ;
#200 = LOCAL_TIME ( 15, 54, 58.00000000000000000, #173 ) ;
#201 = FACE_OUTER_BOUND ( 'NONE', #108, .T. ) ;
#202 = ORIENTED_EDGE ( 'NONE', *, *, #33, .F. ) ;
#203 = CALENDAR_DATE ( 2019, 23, 1 ) ;
#204 = LINE ( 'NONE', #98, #113 ) ;
#205 = ORIENTED_EDGE ( 'NONE', *, *, #75, .F. ) ;
#206 = PRODUCT_DEFINITION ( 'UNKNOWN', '', #154, #170 ) ;
#207 = MANIFOLD_SOLID_BREP ( 'Boss-Extrude1', #58 ) ;
#208 = VECTOR ( 'NONE', #79, 1000.000000000000000 ) ;
#209 = PLANE ( 'NONE',  #211 ) ;
#210 = PLANE ( 'NONE',  #30 ) ;
#211 = AXIS2_PLACEMENT_3D ( 'NONE', #157, #158, #76 ) ;
#212 = CARTESIAN_POINT ( 'NONE',  ( 9.999999999999998200, -5.000000000000000000, -0.05000000000000000300 ) ) ;
#213 = DIRECTION ( 'NONE',  ( -0.0000000000000000000, -0.0000000000000000000, -1.000000000000000000 ) ) ;
#214 = EDGE_CURVE ( 'NONE', #95, #145, #88, .T. ) ;
#215 = CALENDAR_DATE ( 2019, 23, 1 ) ;
#216 = LINE ( 'NONE', #84, #232 ) ;
#217 = PERSON_AND_ORGANIZATION_ROLE ( 'creator' ) ;
#218 = LOCAL_TIME ( 15, 54, 58.00000000000000000, #68 ) ;
#219 = PERSON_AND_ORGANIZATION ( #25, #116 ) ;
#220 =( GEOMETRIC_REPRESENTATION_CONTEXT ( 3 ) GLOBAL_UNCERTAINTY_ASSIGNED_CONTEXT ( ( #136 ) ) GLOBAL_UNIT_ASSIGNED_CONTEXT ( ( #229, #180, #124 ) ) REPRESENTATION_CONTEXT ( 'NONE', 'WORKASPACE' ) );
#221 = VERTEX_POINT ( 'NONE', #104 ) ;
#222 = ORIENTED_EDGE ( 'NONE', *, *, #56, .F. ) ;
#223 = CALENDAR_DATE ( 2019, 23, 1 ) ;
#224 = CARTESIAN_POINT ( 'NONE',  ( 9.999999999999998200, 5.000000000000000000, -0.05000000000000000300 ) ) ;
#225 = APPROVAL_ROLE ( '' ) ;
#226 = CARTESIAN_POINT ( 'NONE',  ( -10.00000000000000200, 5.000000000000000000, 0.05000000000000000300 ) ) ;
#227 = CARTESIAN_POINT ( 'NONE',  ( -10.00000000000000200, 5.000000000000000000, -0.05000000000000000300 ) ) ;
#228 = VERTEX_POINT ( 'NONE', #212 ) ;
#229 =( LENGTH_UNIT ( ) NAMED_UNIT ( * ) SI_UNIT ( .MILLI., .METRE. ) );
#230 = APPROVAL ( #8, 'UNSPECIFIED' ) ;
#231 = APPROVAL_PERSON_ORGANIZATION ( #61, #112, #149 ) ;
#232 = VECTOR ( 'NONE', #213, 1000.000000000000000 ) ;
#233 = ORIENTED_EDGE ( 'NONE', *, *, #43, .F. ) ;
#234 = ADVANCED_FACE ( 'NONE', ( #189 ), #103, .F. ) ;
#235 = EDGE_CURVE ( 'NONE', #54, #36, #37, .T. ) ;
#236 = EDGE_LOOP ( 'NONE', ( #69, #187, #233, #31 ) ) ;
#237 = CC_DESIGN_APPROVAL ( #230, ( #154 ) ) ;
ENDSEC;
END-ISO-10303-21;
