ISO-10303-21;
HEADER;
FILE_DESCRIPTION (( 'STEP AP203' ),
    '1' );
FILE_NAME ('Web Model 89565.STEP',
    '2017-02-01T16:30:41',
    ( '' ),
    ( '' ),
    'SwSTEP 2.0',
    'SolidWorks 2016',
    '' );
FILE_SCHEMA (( 'CONFIG_CONTROL_DESIGN' ));
ENDSEC;

DATA;
#1 = PRODUCT_RELATED_PRODUCT_CATEGORY ( 'detail', '', ( #41 ) ) ;
#2 = APPROVAL_PERSON_ORGANIZATION ( #94, #148, #55 ) ;
#3 = CARTESIAN_POINT ( 'NONE',  ( 0.0000000000000000000, 1.530808498934191500E-015, -12.50000000000000000 ) ) ;
#4 = DIRECTION ( 'NONE',  ( 1.000000000000000000, 0.0000000000000000000, 0.0000000000000000000 ) ) ;
#5 = DATE_TIME_ROLE ( 'creation_date' ) ;
#6 = DIRECTION ( 'NONE',  ( 0.0000000000000000000, 0.0000000000000000000, 1.000000000000000000 ) ) ;
#7 = APPROVAL ( #145, 'UNSPECIFIED' ) ;
#8 = CC_DESIGN_PERSON_AND_ORGANIZATION_ASSIGNMENT ( #26, #79, ( #162 ) ) ;
#9 = ORIENTED_EDGE ( 'NONE', *, *, #35, .F. ) ;
#10 = PERSON_AND_ORGANIZATION ( #112, #113 ) ;
#11 = AXIS2_PLACEMENT_3D ( 'NONE', #66, #4, #135 ) ;
#12 = FACE_OUTER_BOUND ( 'NONE', #24, .T. ) ;
#13 = DIRECTION ( 'NONE',  ( 0.0000000000000000000, 0.0000000000000000000, -1.000000000000000000 ) ) ;
#14 = CC_DESIGN_DATE_AND_TIME_ASSIGNMENT ( #144, #5, ( #162 ) ) ;
#15 = DIRECTION ( 'NONE',  ( -1.000000000000000000, -0.0000000000000000000, -0.0000000000000000000 ) ) ;
#16 = EDGE_CURVE ( 'NONE', #71, #75, #89, .T. ) ;
#17 = SECURITY_CLASSIFICATION_LEVEL ( 'unclassified' ) ;
#18 = DIRECTION ( 'NONE',  ( 1.000000000000000000, 0.0000000000000000000, 0.0000000000000000000 ) ) ;
#19 = PERSON_AND_ORGANIZATION_ROLE ( 'classification_officer' ) ;
#20 = CYLINDRICAL_SURFACE ( 'NONE', #34, 12.50000000000000000 ) ;
#21 = ADVANCED_FACE ( 'NONE', ( #36 ), #126, .T. ) ;
#22 = LINE ( 'NONE', #28, #98 ) ;
#23 = DATE_AND_TIME ( #132, #120 ) ;
#24 = EDGE_LOOP ( 'NONE', ( #73, #37, #170, #149 ) ) ;
#25 = DIRECTION ( 'NONE',  ( 0.0000000000000000000, 0.0000000000000000000, -1.000000000000000000 ) ) ;
#26 = PERSON_AND_ORGANIZATION ( #112, #113 ) ;
#27 = AXIS2_PLACEMENT_3D ( 'NONE', #74, #175, #13 ) ;
#28 = CARTESIAN_POINT ( 'NONE',  ( 3.000000000000000000, 0.0000000000000000000, 12.50000000000000000 ) ) ;
#29 = EDGE_LOOP ( 'NONE', ( #141, #9, #174, #116 ) ) ;
#30 = APPLICATION_PROTOCOL_DEFINITION ( 'international standard', 'config_control_design', 1994, #102 ) ;
#31 = DATE_TIME_ROLE ( 'classification_date' ) ;
#32 = PERSON_AND_ORGANIZATION ( #112, #113 ) ;
#33 = PERSON_AND_ORGANIZATION ( #112, #113 ) ;
#34 = AXIS2_PLACEMENT_3D ( 'NONE', #150, #15, #6 ) ;
#35 = EDGE_CURVE ( 'NONE', #40, #71, #160, .T. ) ;
#36 = FACE_OUTER_BOUND ( 'NONE', #29, .T. ) ;
#37 = ORIENTED_EDGE ( 'NONE', *, *, #16, .T. ) ;
#38 = PERSON_AND_ORGANIZATION ( #112, #113 ) ;
#39 = DIRECTION ( 'NONE',  ( -1.000000000000000000, -0.0000000000000000000, -0.0000000000000000000 ) ) ;
#40 = VERTEX_POINT ( 'NONE', #95 ) ;
#41 = PRODUCT ( 'Web Model 89565', 'Web Model 89565', '', ( #108 ) ) ;
#42 = ADVANCED_BREP_SHAPE_REPRESENTATION ( 'Web Model 89565', ( #47, #121 ), #49 ) ;
#43 = CARTESIAN_POINT ( 'NONE',  ( 0.0000000000000000000, 0.0000000000000000000, 0.0000000000000000000 ) ) ;
#44 = CIRCLE ( 'NONE', #105, 12.50000000000000000 ) ;
#45 = DIRECTION ( 'NONE',  ( 1.000000000000000000, 0.0000000000000000000, 0.0000000000000000000 ) ) ;
#46 = APPROVAL_STATUS ( 'not_yet_approved' ) ;
#47 = MANIFOLD_SOLID_BREP ( 'Extrude1', #129 ) ;
#48 = DATE_AND_TIME ( #78, #154 ) ;
#49 =( GEOMETRIC_REPRESENTATION_CONTEXT ( 3 ) GLOBAL_UNCERTAINTY_ASSIGNED_CONTEXT ( ( #157 ) ) GLOBAL_UNIT_ASSIGNED_CONTEXT ( ( #67, #166, #58 ) ) REPRESENTATION_CONTEXT ( 'NONE', 'WORKASPACE' ) );
#50 = COORDINATED_UNIVERSAL_TIME_OFFSET ( 5, 0, .BEHIND. ) ;
#51 = CC_DESIGN_APPROVAL ( #146, ( #162 ) ) ;
#52 = ORIENTED_EDGE ( 'NONE', *, *, #139, .F. ) ;
#53 = PLANE ( 'NONE',  #27 ) ;
#54 = SECURITY_CLASSIFICATION ( '', '', #17 ) ;
#55 = APPROVAL_ROLE ( '' ) ;
#56 = CARTESIAN_POINT ( 'NONE',  ( 3.000000000000000000, 0.0000000000000000000, 0.0000000000000000000 ) ) ;
#57 = CC_DESIGN_DATE_AND_TIME_ASSIGNMENT ( #48, #31, ( #54 ) ) ;
#58 =( NAMED_UNIT ( * ) SI_UNIT ( $, .STERADIAN. ) SOLID_ANGLE_UNIT ( ) );
#59 = PRODUCT_DEFINITION_FORMATION_WITH_SPECIFIED_SOURCE ( 'ANY', '', #41, .NOT_KNOWN. ) ;
#60 = CIRCLE ( 'NONE', #96, 12.50000000000000000 ) ;
#61 = CARTESIAN_POINT ( 'NONE',  ( 3.000000000000000000, 1.530808498934191500E-015, -12.50000000000000000 ) ) ;
#62 = DIRECTION ( 'NONE',  ( 0.0000000000000000000, 0.0000000000000000000, -1.000000000000000000 ) ) ;
#63 = CC_DESIGN_APPROVAL ( #148, ( #54 ) ) ;
#64 = CARTESIAN_POINT ( 'NONE',  ( 0.0000000000000000000, 0.0000000000000000000, 0.0000000000000000000 ) ) ;
#65 = VERTEX_POINT ( 'NONE', #159 ) ;
#66 = CARTESIAN_POINT ( 'NONE',  ( 3.000000000000000000, 0.0000000000000000000, 0.0000000000000000000 ) ) ;
#67 =( LENGTH_UNIT ( ) NAMED_UNIT ( * ) SI_UNIT ( .MILLI., .METRE. ) );
#68 = PERSON_AND_ORGANIZATION_ROLE ( 'design_supplier' ) ;
#69 = COORDINATED_UNIVERSAL_TIME_OFFSET ( 5, 0, .BEHIND. ) ;
#70 = ORIENTED_EDGE ( 'NONE', *, *, #35, .T. ) ;
#71 = VERTEX_POINT ( 'NONE', #61 ) ;
#72 = CC_DESIGN_SECURITY_CLASSIFICATION ( #54, ( #59 ) ) ;
#73 = ORIENTED_EDGE ( 'NONE', *, *, #87, .F. ) ;
#74 = CARTESIAN_POINT ( 'NONE',  ( 0.0000000000000000000, 0.0000000000000000000, 0.0000000000000000000 ) ) ;
#75 = VERTEX_POINT ( 'NONE', #3 ) ;
#76 = DIRECTION ( 'NONE',  ( 0.0000000000000000000, 0.0000000000000000000, 1.000000000000000000 ) ) ;
#77 = EDGE_CURVE ( 'NONE', #75, #65, #44, .T. ) ;
#78 = CALENDAR_DATE ( 2017, 1, 2 ) ;
#79 = PERSON_AND_ORGANIZATION_ROLE ( 'creator' ) ;
#80 = EDGE_CURVE ( 'NONE', #40, #65, #22, .T. ) ;
#81 = DIRECTION ( 'NONE',  ( 0.0000000000000000000, 0.0000000000000000000, -1.000000000000000000 ) ) ;
#82 = CALENDAR_DATE ( 2017, 1, 2 ) ;
#83 = APPROVAL_DATE_TIME ( #23, #148 ) ;
#84 = ADVANCED_FACE ( 'NONE', ( #123 ), #53, .F. ) ;
#85 = EDGE_LOOP ( 'NONE', ( #70, #127 ) ) ;
#86 = COORDINATED_UNIVERSAL_TIME_OFFSET ( 5, 0, .BEHIND. ) ;
#87 = EDGE_CURVE ( 'NONE', #71, #40, #60, .T. ) ;
#88 = CIRCLE ( 'NONE', #172, 12.50000000000000000 ) ;
#89 = LINE ( 'NONE', #161, #106 ) ;
#90 = CARTESIAN_POINT ( 'NONE',  ( 0.0000000000000000000, 0.0000000000000000000, 0.0000000000000000000 ) ) ;
#91 = CARTESIAN_POINT ( 'NONE',  ( 3.000000000000000000, 0.0000000000000000000, 0.0000000000000000000 ) ) ;
#92 = LOCAL_TIME ( 11, 30, 41.00000000000000000, #86 ) ;
#93 = DIRECTION ( 'NONE',  ( -1.000000000000000000, -0.0000000000000000000, -0.0000000000000000000 ) ) ;
#94 = PERSON_AND_ORGANIZATION ( #112, #113 ) ;
#95 = CARTESIAN_POINT ( 'NONE',  ( 3.000000000000000000, 0.0000000000000000000, 12.50000000000000000 ) ) ;
#96 = AXIS2_PLACEMENT_3D ( 'NONE', #56, #45, #124 ) ;
#97 = APPLICATION_PROTOCOL_DEFINITION ( 'international standard', 'config_control_design', 1994, #101 ) ;
#98 = VECTOR ( 'NONE', #142, 1000.000000000000000 ) ;
#99 = APPROVAL_ROLE ( '' ) ;
#100 = DIRECTION ( 'NONE',  ( 0.0000000000000000000, 0.0000000000000000000, 1.000000000000000000 ) ) ;
#101 = APPLICATION_CONTEXT ( 'configuration controlled 3d designs of mechanical parts and assemblies' ) ;
#102 = APPLICATION_CONTEXT ( 'configuration controlled 3d designs of mechanical parts and assemblies' ) ;
#103 = APPROVAL_DATE_TIME ( #151, #146 ) ;
#104 = CARTESIAN_POINT ( 'NONE',  ( 3.000000000000000000, 0.0000000000000000000, 0.0000000000000000000 ) ) ;
#105 = AXIS2_PLACEMENT_3D ( 'NONE', #90, #119, #25 ) ;
#106 = VECTOR ( 'NONE', #93, 1000.000000000000000 ) ;
#107 = EDGE_LOOP ( 'NONE', ( #52, #114 ) ) ;
#108 = MECHANICAL_CONTEXT ( 'NONE', #101, 'mechanical' ) ;
#109 = LOCAL_TIME ( 11, 30, 41.00000000000000000, #69 ) ;
#110 = CALENDAR_DATE ( 2017, 1, 2 ) ;
#111 = CC_DESIGN_APPROVAL ( #7, ( #59 ) ) ;
#112 = PERSON ( 'UNSPECIFIED', 'UNSPECIFIED', 'UNSPECIFIED', ('UNSPECIFIED'), ('UNSPECIFIED'), ('UNSPECIFIED') ) ;
#113 = ORGANIZATION ( 'UNSPECIFIED', 'UNSPECIFIED', '' ) ;
#114 = ORIENTED_EDGE ( 'NONE', *, *, #77, .F. ) ;
#115 = DATE_AND_TIME ( #173, #109 ) ;
#116 = ORIENTED_EDGE ( 'NONE', *, *, #139, .T. ) ;
#117 = CC_DESIGN_PERSON_AND_ORGANIZATION_ASSIGNMENT ( #10, #122, ( #41 ) ) ;
#118 = LOCAL_TIME ( 11, 30, 41.00000000000000000, #153 ) ;
#119 = DIRECTION ( 'NONE',  ( 1.000000000000000000, 0.0000000000000000000, 0.0000000000000000000 ) ) ;
#120 = LOCAL_TIME ( 11, 30, 41.00000000000000000, #137 ) ;
#121 = AXIS2_PLACEMENT_3D ( 'NONE', #64, #100, #18 ) ;
#122 = PERSON_AND_ORGANIZATION_ROLE ( 'design_owner' ) ;
#123 = FACE_OUTER_BOUND ( 'NONE', #107, .T. ) ;
#124 = DIRECTION ( 'NONE',  ( 0.0000000000000000000, 0.0000000000000000000, -1.000000000000000000 ) ) ;
#125 = PERSON_AND_ORGANIZATION_ROLE ( 'creator' ) ;
#126 = CYLINDRICAL_SURFACE ( 'NONE', #133, 12.50000000000000000 ) ;
#127 = ORIENTED_EDGE ( 'NONE', *, *, #87, .T. ) ;
#128 = APPROVAL_DATE_TIME ( #115, #7 ) ;
#129 = CLOSED_SHELL ( 'NONE', ( #171, #21, #152, #84 ) ) ;
#130 = DESIGN_CONTEXT ( 'detailed design', #102, 'design' ) ;
#131 = PLANE ( 'NONE',  #11 ) ;
#132 = CALENDAR_DATE ( 2017, 1, 2 ) ;
#133 = AXIS2_PLACEMENT_3D ( 'NONE', #104, #39, #76 ) ;
#134 = DIRECTION ( 'NONE',  ( 1.000000000000000000, 0.0000000000000000000, 0.0000000000000000000 ) ) ;
#135 = DIRECTION ( 'NONE',  ( 0.0000000000000000000, 0.0000000000000000000, -1.000000000000000000 ) ) ;
#136 = CC_DESIGN_PERSON_AND_ORGANIZATION_ASSIGNMENT ( #33, #68, ( #59 ) ) ;
#137 = COORDINATED_UNIVERSAL_TIME_OFFSET ( 5, 0, .BEHIND. ) ;
#138 = PERSON_AND_ORGANIZATION ( #112, #113 ) ;
#139 = EDGE_CURVE ( 'NONE', #65, #75, #88, .T. ) ;
#140 = APPROVAL_PERSON_ORGANIZATION ( #168, #7, #99 ) ;
#141 = ORIENTED_EDGE ( 'NONE', *, *, #16, .F. ) ;
#142 = DIRECTION ( 'NONE',  ( -1.000000000000000000, -0.0000000000000000000, -0.0000000000000000000 ) ) ;
#143 = APPROVAL_PERSON_ORGANIZATION ( #32, #146, #147 ) ;
#144 = DATE_AND_TIME ( #110, #92 ) ;
#145 = APPROVAL_STATUS ( 'not_yet_approved' ) ;
#146 = APPROVAL ( #163, 'UNSPECIFIED' ) ;
#147 = APPROVAL_ROLE ( '' ) ;
#148 = APPROVAL ( #46, 'UNSPECIFIED' ) ;
#149 = ORIENTED_EDGE ( 'NONE', *, *, #80, .F. ) ;
#150 = CARTESIAN_POINT ( 'NONE',  ( 3.000000000000000000, 0.0000000000000000000, 0.0000000000000000000 ) ) ;
#151 = DATE_AND_TIME ( #82, #118 ) ;
#152 = ADVANCED_FACE ( 'NONE', ( #164 ), #131, .T. ) ;
#153 = COORDINATED_UNIVERSAL_TIME_OFFSET ( 5, 0, .BEHIND. ) ;
#154 = LOCAL_TIME ( 11, 30, 41.00000000000000000, #50 ) ;
#155 = CC_DESIGN_PERSON_AND_ORGANIZATION_ASSIGNMENT ( #38, #125, ( #59 ) ) ;
#156 = SHAPE_DEFINITION_REPRESENTATION ( #165, #42 ) ;
#157 = UNCERTAINTY_MEASURE_WITH_UNIT (LENGTH_MEASURE( 1.000000000000000100E-005 ), #67, 'distance_accuracy_value', 'NONE');
#158 = AXIS2_PLACEMENT_3D ( 'NONE', #91, #134, #62 ) ;
#159 = CARTESIAN_POINT ( 'NONE',  ( 0.0000000000000000000, 0.0000000000000000000, 12.50000000000000000 ) ) ;
#160 = CIRCLE ( 'NONE', #158, 12.50000000000000000 ) ;
#161 = CARTESIAN_POINT ( 'NONE',  ( 3.000000000000000000, 1.530808498934191500E-015, -12.50000000000000000 ) ) ;
#162 = PRODUCT_DEFINITION ( 'UNKNOWN', '', #59, #130 ) ;
#163 = APPROVAL_STATUS ( 'not_yet_approved' ) ;
#164 = FACE_OUTER_BOUND ( 'NONE', #85, .T. ) ;
#165 = PRODUCT_DEFINITION_SHAPE ( 'NONE', 'NONE',  #162 ) ;
#166 =( NAMED_UNIT ( * ) PLANE_ANGLE_UNIT ( ) SI_UNIT ( $, .RADIAN. ) );
#167 = DIRECTION ( 'NONE',  ( 1.000000000000000000, 0.0000000000000000000, 0.0000000000000000000 ) ) ;
#168 = PERSON_AND_ORGANIZATION ( #112, #113 ) ;
#169 = CC_DESIGN_PERSON_AND_ORGANIZATION_ASSIGNMENT ( #138, #19, ( #54 ) ) ;
#170 = ORIENTED_EDGE ( 'NONE', *, *, #77, .T. ) ;
#171 = ADVANCED_FACE ( 'NONE', ( #12 ), #20, .T. ) ;
#172 = AXIS2_PLACEMENT_3D ( 'NONE', #43, #167, #81 ) ;
#173 = CALENDAR_DATE ( 2017, 1, 2 ) ;
#174 = ORIENTED_EDGE ( 'NONE', *, *, #80, .T. ) ;
#175 = DIRECTION ( 'NONE',  ( 1.000000000000000000, 0.0000000000000000000, 0.0000000000000000000 ) ) ;
ENDSEC;
END-ISO-10303-21;
