ISO-10303-21;
HEADER;
FILE_DESCRIPTION (( 'STEP AP203' ),
    '1' );
FILE_NAME ('Web Model 37128MX_37135.step',
    '2018-05-08T16:12:38',
    ( '' ),
    ( '' ),
    'SwSTEP 2.0',
    'SolidWorks 2016',
    '' );
FILE_SCHEMA (( 'CONFIG_CONTROL_DESIGN' ));
ENDSEC;

DATA;
#1 = EDGE_CURVE ( 'NONE', #196, #218, #55, .T. ) ;
#2 = VECTOR ( 'NONE', #139, 1000.000000000000000 ) ;
#3 = PERSON_AND_ORGANIZATION ( #221, #12 ) ;
#4 = CARTESIAN_POINT ( 'NONE',  ( 12.50000000000000500, 12.49999999999999800, 3.000000000000000000 ) ) ;
#5 = LINE ( 'NONE', #128, #232 ) ;
#6 = EDGE_CURVE ( 'NONE', #26, #218, #92, .T. ) ;
#7 = ADVANCED_FACE ( 'NONE', ( #204 ), #140, .F. ) ;
#8 = DIRECTION ( 'NONE',  ( -1.387778780781445400E-016, 1.000000000000000000, 0.0000000000000000000 ) ) ;
#9 = DATE_TIME_ROLE ( 'classification_date' ) ;
#10 = EDGE_LOOP ( 'NONE', ( #49, #33, #142, #223 ) ) ;
#11 = CALENDAR_DATE ( 2018, 8, 5 ) ;
#12 = ORGANIZATION ( 'UNSPECIFIED', 'UNSPECIFIED', '' ) ;
#13 = ORIENTED_EDGE ( 'NONE', *, *, #31, .F. ) ;
#14 = LOCAL_TIME ( 12, 12, 38.00000000000000000, #162 ) ;
#15 = ORIENTED_EDGE ( 'NONE', *, *, #102, .F. ) ;
#16 = ORIENTED_EDGE ( 'NONE', *, *, #1, .F. ) ;
#17 = ADVANCED_FACE ( 'NONE', ( #82 ), #103, .F. ) ;
#18 = APPROVAL_DATE_TIME ( #163, #109 ) ;
#19 = ADVANCED_FACE ( 'NONE', ( #38 ), #172, .F. ) ;
#20 = VECTOR ( 'NONE', #29, 1000.000000000000000 ) ;
#21 = CC_DESIGN_APPROVAL ( #137, ( #124 ) ) ;
#22 = ADVANCED_FACE ( 'NONE', ( #209 ), #184, .F. ) ;
#23 = PERSON_AND_ORGANIZATION ( #221, #12 ) ;
#24 = LINE ( 'NONE', #94, #63 ) ;
#25 = CARTESIAN_POINT ( 'NONE',  ( 12.50000000000000500, -12.50000000000000200, 3.000000000000000000 ) ) ;
#26 = VERTEX_POINT ( 'NONE', #57 ) ;
#27 = PERSON_AND_ORGANIZATION_ROLE ( 'design_owner' ) ;
#28 = DIRECTION ( 'NONE',  ( 1.000000000000000000, 0.0000000000000000000, -0.0000000000000000000 ) ) ;
#29 = DIRECTION ( 'NONE',  ( -0.0000000000000000000, -0.0000000000000000000, -1.000000000000000000 ) ) ;
#30 = PERSON_AND_ORGANIZATION ( #221, #12 ) ;
#31 = EDGE_CURVE ( 'NONE', #54, #133, #198, .T. ) ;
#32 = ORIENTED_EDGE ( 'NONE', *, *, #102, .T. ) ;
#33 = ORIENTED_EDGE ( 'NONE', *, *, #40, .F. ) ;
#34 =( LENGTH_UNIT ( ) NAMED_UNIT ( * ) SI_UNIT ( .MILLI., .METRE. ) );
#35 = CC_DESIGN_PERSON_AND_ORGANIZATION_ASSIGNMENT ( #113, #45, ( #112 ) ) ;
#36 = CC_DESIGN_SECURITY_CLASSIFICATION ( #151, ( #112 ) ) ;
#37 = EDGE_CURVE ( 'NONE', #133, #196, #191, .T. ) ;
#38 = FACE_OUTER_BOUND ( 'NONE', #10, .T. ) ;
#39 = VECTOR ( 'NONE', #116, 1000.000000000000000 ) ;
#40 = EDGE_CURVE ( 'NONE', #54, #79, #125, .T. ) ;
#41 = PRODUCT ( 'Web Model 37128MX_37135', 'Web Model 37128MX_37135', '', ( #99 ) ) ;
#42 = APPLICATION_CONTEXT ( 'configuration controlled 3d designs of mechanical parts and assemblies' ) ;
#43 = PERSON_AND_ORGANIZATION ( #221, #12 ) ;
#44 = CARTESIAN_POINT ( 'NONE',  ( -12.49999999999999500, 12.49999999999999500, 3.000000000000000000 ) ) ;
#45 = PERSON_AND_ORGANIZATION_ROLE ( 'creator' ) ;
#46 = EDGE_CURVE ( 'NONE', #218, #161, #5, .T. ) ;
#47 = VECTOR ( 'NONE', #207, 1000.000000000000000 ) ;
#48 = CC_DESIGN_PERSON_AND_ORGANIZATION_ASSIGNMENT ( #23, #208, ( #151 ) ) ;
#49 = ORIENTED_EDGE ( 'NONE', *, *, #185, .T. ) ;
#50 = ORIENTED_EDGE ( 'NONE', *, *, #233, .T. ) ;
#51 = UNCERTAINTY_MEASURE_WITH_UNIT (LENGTH_MEASURE( 1.000000000000000100E-005 ), #34, 'distance_accuracy_value', 'NONE');
#52 = DESIGN_CONTEXT ( 'detailed design', #42, 'design' ) ;
#53 = LOCAL_TIME ( 12, 12, 38.00000000000000000, #216 ) ;
#54 = VERTEX_POINT ( 'NONE', #101 ) ;
#55 = LINE ( 'NONE', #4, #114 ) ;
#56 = EDGE_CURVE ( 'NONE', #79, #26, #70, .T. ) ;
#57 = CARTESIAN_POINT ( 'NONE',  ( 12.50000000000000500, -12.50000000000000200, -3.000000000000000000 ) ) ;
#58 = SHAPE_DEFINITION_REPRESENTATION ( #147, #68 ) ;
#59 = APPLICATION_PROTOCOL_DEFINITION ( 'international standard', 'config_control_design', 1994, #42 ) ;
#60 = ORIENTED_EDGE ( 'NONE', *, *, #174, .F. ) ;
#61 = DIRECTION ( 'NONE',  ( 0.0000000000000000000, -0.0000000000000000000, 1.000000000000000000 ) ) ;
#62 = LINE ( 'NONE', #44, #2 ) ;
#63 = VECTOR ( 'NONE', #190, 1000.000000000000000 ) ;
#64 = CARTESIAN_POINT ( 'NONE',  ( -12.49999999999999500, -12.50000000000000500, 3.000000000000000000 ) ) ;
#65 = LINE ( 'NONE', #235, #119 ) ;
#66 = ORIENTED_EDGE ( 'NONE', *, *, #31, .T. ) ;
#67 = AXIS2_PLACEMENT_3D ( 'NONE', #117, #153, #168 ) ;
#68 = ADVANCED_BREP_SHAPE_REPRESENTATION ( 'Web Model 37128MX_37135', ( #234, #98 ), #144 ) ;
#69 = CC_DESIGN_PERSON_AND_ORGANIZATION_ASSIGNMENT ( #3, #78, ( #124 ) ) ;
#70 = LINE ( 'NONE', #220, #229 ) ;
#71 = FACE_OUTER_BOUND ( 'NONE', #202, .T. ) ;
#72 = DIRECTION ( 'NONE',  ( 1.387778780781445400E-016, -1.000000000000000000, 0.0000000000000000000 ) ) ;
#73 = CARTESIAN_POINT ( 'NONE',  ( 12.50000000000000500, -12.50000000000000200, -3.000000000000000000 ) ) ;
#74 = SECURITY_CLASSIFICATION_LEVEL ( 'unclassified' ) ;
#75 = PLANE ( 'NONE',  #152 ) ;
#76 = CARTESIAN_POINT ( 'NONE',  ( 12.50000000000000500, -12.50000000000000200, 3.000000000000000000 ) ) ;
#77 = DIRECTION ( 'NONE',  ( 0.0000000000000000000, 0.0000000000000000000, 1.000000000000000000 ) ) ;
#78 = PERSON_AND_ORGANIZATION_ROLE ( 'creator' ) ;
#79 = VERTEX_POINT ( 'NONE', #187 ) ;
#80 = AXIS2_PLACEMENT_3D ( 'NONE', #230, #61, #28 ) ;
#81 = ORIENTED_EDGE ( 'NONE', *, *, #1, .T. ) ;
#82 = FACE_OUTER_BOUND ( 'NONE', #166, .T. ) ;
#83 = CC_DESIGN_DATE_AND_TIME_ASSIGNMENT ( #90, #183, ( #124 ) ) ;
#84 = DIRECTION ( 'NONE',  ( 1.000000000000000000, 1.387778780781445700E-016, -0.0000000000000000000 ) ) ;
#85 = CC_DESIGN_DATE_AND_TIME_ASSIGNMENT ( #203, #9, ( #151 ) ) ;
#86 = COORDINATED_UNIVERSAL_TIME_OFFSET ( 5, 0, .BEHIND. ) ;
#87 = ORIENTED_EDGE ( 'NONE', *, *, #56, .T. ) ;
#88 = EDGE_LOOP ( 'NONE', ( #138, #16, #159, #32 ) ) ;
#89 = AXIS2_PLACEMENT_3D ( 'NONE', #182, #72, #206 ) ;
#90 = DATE_AND_TIME ( #193, #145 ) ;
#91 = PERSON_AND_ORGANIZATION ( #221, #12 ) ;
#92 = LINE ( 'NONE', #73, #47 ) ;
#93 = CARTESIAN_POINT ( 'NONE',  ( -12.49999999999999500, -12.50000000000000500, -3.000000000000000000 ) ) ;
#94 = CARTESIAN_POINT ( 'NONE',  ( -12.49999999999999500, -12.50000000000000500, 3.000000000000000000 ) ) ;
#95 = PERSON_AND_ORGANIZATION_ROLE ( 'design_supplier' ) ;
#96 = APPROVAL_DATE_TIME ( #195, #137 ) ;
#97 = CARTESIAN_POINT ( 'NONE',  ( -12.49999999999999500, 12.49999999999999500, 3.000000000000000000 ) ) ;
#98 = AXIS2_PLACEMENT_3D ( 'NONE', #156, #77, #224 ) ;
#99 = MECHANICAL_CONTEXT ( 'NONE', #154, 'mechanical' ) ;
#100 = CARTESIAN_POINT ( 'NONE',  ( 12.50000000000000500, -12.50000000000000200, 3.000000000000000000 ) ) ;
#101 = CARTESIAN_POINT ( 'NONE',  ( -12.49999999999999500, -12.50000000000000500, 3.000000000000000000 ) ) ;
#102 = EDGE_CURVE ( 'NONE', #133, #26, #164, .T. ) ;
#103 = PLANE ( 'NONE',  #126 ) ;
#104 = PERSON_AND_ORGANIZATION ( #221, #12 ) ;
#105 = VECTOR ( 'NONE', #84, 1000.000000000000000 ) ;
#106 = APPROVAL ( #169, 'UNSPECIFIED' ) ;
#107 = ORIENTED_EDGE ( 'NONE', *, *, #40, .T. ) ;
#108 = EDGE_LOOP ( 'NONE', ( #192, #60, #189, #81 ) ) ;
#109 = APPROVAL ( #212, 'UNSPECIFIED' ) ;
#110 = EDGE_LOOP ( 'NONE', ( #87, #15, #13, #107 ) ) ;
#111 = CC_DESIGN_PERSON_AND_ORGANIZATION_ASSIGNMENT ( #104, #27, ( #41 ) ) ;
#112 = PRODUCT_DEFINITION_FORMATION_WITH_SPECIFIED_SOURCE ( 'ANY', '', #41, .NOT_KNOWN. ) ;
#113 = PERSON_AND_ORGANIZATION ( #221, #12 ) ;
#114 = VECTOR ( 'NONE', #150, 1000.000000000000000 ) ;
#115 = CLOSED_SHELL ( 'NONE', ( #19, #7, #200, #22, #165, #17 ) ) ;
#116 = DIRECTION ( 'NONE',  ( -0.0000000000000000000, -0.0000000000000000000, -1.000000000000000000 ) ) ;
#117 = CARTESIAN_POINT ( 'NONE',  ( -12.49999999999999500, -12.50000000000000500, 3.000000000000000000 ) ) ;
#118 = DATE_AND_TIME ( #176, #158 ) ;
#119 = VECTOR ( 'NONE', #215, 1000.000000000000000 ) ;
#120 = APPROVAL_ROLE ( '' ) ;
#121 = DIRECTION ( 'NONE',  ( 0.0000000000000000000, 0.0000000000000000000, 1.000000000000000000 ) ) ;
#122 = VECTOR ( 'NONE', #213, 1000.000000000000000 ) ;
#123 = ORIENTED_EDGE ( 'NONE', *, *, #46, .F. ) ;
#124 = PRODUCT_DEFINITION ( 'UNKNOWN', '', #112, #52 ) ;
#125 = LINE ( 'NONE', #64, #39 ) ;
#126 = AXIS2_PLACEMENT_3D ( 'NONE', #194, #197, #205 ) ;
#127 = CC_DESIGN_APPROVAL ( #106, ( #151 ) ) ;
#128 = CARTESIAN_POINT ( 'NONE',  ( 12.50000000000000500, 12.49999999999999800, -3.000000000000000000 ) ) ;
#129 = COORDINATED_UNIVERSAL_TIME_OFFSET ( 5, 0, .BEHIND. ) ;
#130 = ORIENTED_EDGE ( 'NONE', *, *, #225, .T. ) ;
#131 = DIRECTION ( 'NONE',  ( -1.000000000000000000, -1.387778780781445700E-016, 0.0000000000000000000 ) ) ;
#132 = CARTESIAN_POINT ( 'NONE',  ( 12.50000000000000500, -12.50000000000000200, 3.000000000000000000 ) ) ;
#133 = VERTEX_POINT ( 'NONE', #100 ) ;
#134 = APPROVAL_ROLE ( '' ) ;
#135 = CARTESIAN_POINT ( 'NONE',  ( -12.49999999999999500, 12.49999999999999500, -3.000000000000000000 ) ) ;
#136 = DIRECTION ( 'NONE',  ( 0.0000000000000000000, 1.000000000000000000, 0.0000000000000000000 ) ) ;
#137 = APPROVAL ( #173, 'UNSPECIFIED' ) ;
#138 = ORIENTED_EDGE ( 'NONE', *, *, #6, .T. ) ;
#139 = DIRECTION ( 'NONE',  ( -0.0000000000000000000, -0.0000000000000000000, -1.000000000000000000 ) ) ;
#140 = PLANE ( 'NONE',  #180 ) ;
#141 = APPROVAL_PERSON_ORGANIZATION ( #91, #137, #134 ) ;
#142 = ORIENTED_EDGE ( 'NONE', *, *, #225, .F. ) ;
#143 = PRODUCT_RELATED_PRODUCT_CATEGORY ( 'detail', '', ( #41 ) ) ;
#144 =( GEOMETRIC_REPRESENTATION_CONTEXT ( 3 ) GLOBAL_UNCERTAINTY_ASSIGNED_CONTEXT ( ( #51 ) ) GLOBAL_UNIT_ASSIGNED_CONTEXT ( ( #34, #178, #179 ) ) REPRESENTATION_CONTEXT ( 'NONE', 'WORKASPACE' ) );
#145 = LOCAL_TIME ( 12, 12, 38.00000000000000000, #188 ) ;
#146 = VECTOR ( 'NONE', #136, 1000.000000000000000 ) ;
#147 = PRODUCT_DEFINITION_SHAPE ( 'NONE', 'NONE',  #124 ) ;
#148 = ORIENTED_EDGE ( 'NONE', *, *, #185, .F. ) ;
#149 = CC_DESIGN_APPROVAL ( #109, ( #112 ) ) ;
#150 = DIRECTION ( 'NONE',  ( -0.0000000000000000000, -0.0000000000000000000, -1.000000000000000000 ) ) ;
#151 = SECURITY_CLASSIFICATION ( '', '', #74 ) ;
#152 = AXIS2_PLACEMENT_3D ( 'NONE', #25, #170, #121 ) ;
#153 = DIRECTION ( 'NONE',  ( 1.000000000000000000, 0.0000000000000000000, 0.0000000000000000000 ) ) ;
#154 = APPLICATION_CONTEXT ( 'configuration controlled 3d designs of mechanical parts and assemblies' ) ;
#155 = CARTESIAN_POINT ( 'NONE',  ( 12.50000000000000500, -12.50000000000000200, 3.000000000000000000 ) ) ;
#156 = CARTESIAN_POINT ( 'NONE',  ( 0.0000000000000000000, 0.0000000000000000000, 0.0000000000000000000 ) ) ;
#157 = CARTESIAN_POINT ( 'NONE',  ( 12.50000000000000500, 12.49999999999999800, 3.000000000000000000 ) ) ;
#158 = LOCAL_TIME ( 12, 12, 38.00000000000000000, #129 ) ;
#159 = ORIENTED_EDGE ( 'NONE', *, *, #37, .F. ) ;
#160 = CC_DESIGN_PERSON_AND_ORGANIZATION_ASSIGNMENT ( #222, #95, ( #112 ) ) ;
#161 = VERTEX_POINT ( 'NONE', #135 ) ;
#162 = COORDINATED_UNIVERSAL_TIME_OFFSET ( 5, 0, .BEHIND. ) ;
#163 = DATE_AND_TIME ( #228, #53 ) ;
#164 = LINE ( 'NONE', #155, #20 ) ;
#165 = ADVANCED_FACE ( 'NONE', ( #71 ), #214, .T. ) ;
#166 = EDGE_LOOP ( 'NONE', ( #148, #123, #211, #219 ) ) ;
#167 = DIRECTION ( 'NONE',  ( 1.000000000000000000, 1.387778780781445700E-016, -0.0000000000000000000 ) ) ;
#168 = DIRECTION ( 'NONE',  ( 0.0000000000000000000, 0.0000000000000000000, -1.000000000000000000 ) ) ;
#169 = APPROVAL_STATUS ( 'not_yet_approved' ) ;
#170 = DIRECTION ( 'NONE',  ( -1.000000000000000000, 0.0000000000000000000, 0.0000000000000000000 ) ) ;
#171 = VERTEX_POINT ( 'NONE', #97 ) ;
#172 = PLANE ( 'NONE',  #67 ) ;
#173 = APPROVAL_STATUS ( 'not_yet_approved' ) ;
#174 = EDGE_CURVE ( 'NONE', #171, #161, #62, .T. ) ;
#175 = APPLICATION_PROTOCOL_DEFINITION ( 'international standard', 'config_control_design', 1994, #154 ) ;
#176 = CALENDAR_DATE ( 2018, 8, 5 ) ;
#177 = APPROVAL_PERSON_ORGANIZATION ( #30, #106, #226 ) ;
#178 =( NAMED_UNIT ( * ) PLANE_ANGLE_UNIT ( ) SI_UNIT ( $, .RADIAN. ) );
#179 =( NAMED_UNIT ( * ) SI_UNIT ( $, .STERADIAN. ) SOLID_ANGLE_UNIT ( ) );
#180 = AXIS2_PLACEMENT_3D ( 'NONE', #186, #8, #227 ) ;
#181 = LINE ( 'NONE', #93, #122 ) ;
#182 = CARTESIAN_POINT ( 'NONE',  ( 12.50000000000000500, 12.49999999999999800, 3.000000000000000000 ) ) ;
#183 = DATE_TIME_ROLE ( 'creation_date' ) ;
#184 = PLANE ( 'NONE',  #89 ) ;
#185 = EDGE_CURVE ( 'NONE', #161, #79, #181, .T. ) ;
#186 = CARTESIAN_POINT ( 'NONE',  ( 12.50000000000000500, -12.50000000000000200, 3.000000000000000000 ) ) ;
#187 = CARTESIAN_POINT ( 'NONE',  ( -12.49999999999999500, -12.50000000000000500, -3.000000000000000000 ) ) ;
#188 = COORDINATED_UNIVERSAL_TIME_OFFSET ( 5, 0, .BEHIND. ) ;
#189 = ORIENTED_EDGE ( 'NONE', *, *, #233, .F. ) ;
#190 = DIRECTION ( 'NONE',  ( -0.0000000000000000000, -1.000000000000000000, -0.0000000000000000000 ) ) ;
#191 = LINE ( 'NONE', #76, #146 ) ;
#192 = ORIENTED_EDGE ( 'NONE', *, *, #46, .T. ) ;
#193 = CALENDAR_DATE ( 2018, 8, 5 ) ;
#194 = CARTESIAN_POINT ( 'NONE',  ( 0.0000000000000000000, 0.0000000000000000000, -3.000000000000000000 ) ) ;
#195 = DATE_AND_TIME ( #237, #231 ) ;
#196 = VERTEX_POINT ( 'NONE', #157 ) ;
#197 = DIRECTION ( 'NONE',  ( 0.0000000000000000000, -0.0000000000000000000, 1.000000000000000000 ) ) ;
#198 = LINE ( 'NONE', #132, #105 ) ;
#199 = ORIENTED_EDGE ( 'NONE', *, *, #37, .T. ) ;
#200 = ADVANCED_FACE ( 'NONE', ( #217 ), #75, .F. ) ;
#201 = APPROVAL_DATE_TIME ( #118, #106 ) ;
#202 = EDGE_LOOP ( 'NONE', ( #130, #66, #199, #50 ) ) ;
#203 = DATE_AND_TIME ( #11, #14 ) ;
#204 = FACE_OUTER_BOUND ( 'NONE', #110, .T. ) ;
#205 = DIRECTION ( 'NONE',  ( 1.000000000000000000, 0.0000000000000000000, -0.0000000000000000000 ) ) ;
#206 = DIRECTION ( 'NONE',  ( 1.000000000000000000, 1.387778780781445400E-016, 0.0000000000000000000 ) ) ;
#207 = DIRECTION ( 'NONE',  ( 0.0000000000000000000, 1.000000000000000000, 0.0000000000000000000 ) ) ;
#208 = PERSON_AND_ORGANIZATION_ROLE ( 'classification_officer' ) ;
#209 = FACE_OUTER_BOUND ( 'NONE', #108, .T. ) ;
#210 = CARTESIAN_POINT ( 'NONE',  ( 12.50000000000000500, 12.49999999999999800, -3.000000000000000000 ) ) ;
#211 = ORIENTED_EDGE ( 'NONE', *, *, #6, .F. ) ;
#212 = APPROVAL_STATUS ( 'not_yet_approved' ) ;
#213 = DIRECTION ( 'NONE',  ( -0.0000000000000000000, -1.000000000000000000, -0.0000000000000000000 ) ) ;
#214 = PLANE ( 'NONE',  #80 ) ;
#215 = DIRECTION ( 'NONE',  ( -1.000000000000000000, -1.387778780781445700E-016, 0.0000000000000000000 ) ) ;
#216 = COORDINATED_UNIVERSAL_TIME_OFFSET ( 5, 0, .BEHIND. ) ;
#217 = FACE_OUTER_BOUND ( 'NONE', #88, .T. ) ;
#218 = VERTEX_POINT ( 'NONE', #210 ) ;
#219 = ORIENTED_EDGE ( 'NONE', *, *, #56, .F. ) ;
#220 = CARTESIAN_POINT ( 'NONE',  ( 12.50000000000000500, -12.50000000000000200, -3.000000000000000000 ) ) ;
#221 = PERSON ( 'UNSPECIFIED', 'UNSPECIFIED', 'UNSPECIFIED', ('UNSPECIFIED'), ('UNSPECIFIED'), ('UNSPECIFIED') ) ;
#222 = PERSON_AND_ORGANIZATION ( #221, #12 ) ;
#223 = ORIENTED_EDGE ( 'NONE', *, *, #174, .T. ) ;
#224 = DIRECTION ( 'NONE',  ( 1.000000000000000000, 0.0000000000000000000, 0.0000000000000000000 ) ) ;
#225 = EDGE_CURVE ( 'NONE', #171, #54, #24, .T. ) ;
#226 = APPROVAL_ROLE ( '' ) ;
#227 = DIRECTION ( 'NONE',  ( -1.000000000000000000, -1.387778780781445400E-016, 0.0000000000000000000 ) ) ;
#228 = CALENDAR_DATE ( 2018, 8, 5 ) ;
#229 = VECTOR ( 'NONE', #167, 1000.000000000000000 ) ;
#230 = CARTESIAN_POINT ( 'NONE',  ( 0.0000000000000000000, 0.0000000000000000000, 3.000000000000000000 ) ) ;
#231 = LOCAL_TIME ( 12, 12, 38.00000000000000000, #86 ) ;
#232 = VECTOR ( 'NONE', #131, 1000.000000000000000 ) ;
#233 = EDGE_CURVE ( 'NONE', #196, #171, #65, .T. ) ;
#234 = MANIFOLD_SOLID_BREP ( 'Boss-Extrude1', #115 ) ;
#235 = CARTESIAN_POINT ( 'NONE',  ( 12.50000000000000500, 12.49999999999999800, 3.000000000000000000 ) ) ;
#236 = APPROVAL_PERSON_ORGANIZATION ( #43, #109, #120 ) ;
#237 = CALENDAR_DATE ( 2018, 8, 5 ) ;
ENDSEC;
END-ISO-10303-21;
