ISO-10303-21;
HEADER;
FILE_DESCRIPTION (( 'STEP AP203' ),
    '1' );
FILE_NAME ('Web Model 15424_15432.step',
    '2020-07-31T18:44:00',
    ( '' ),
    ( '' ),
    'SwSTEP 2.0',
    'SolidWorks 2018',
    '' );
FILE_SCHEMA (( 'CONFIG_CONTROL_DESIGN' ));
ENDSEC;

DATA;
#1 = DATE_AND_TIME ( #127, #166 ) ;
#2 = APPLICATION_CONTEXT ( 'configuration controlled 3d designs of mechanical parts and assemblies' ) ;
#3 = DIRECTION ( 'NONE',  ( -0.0000000000000000000, -0.0000000000000000000, -1.000000000000000000 ) ) ;
#4 = CC_DESIGN_PERSON_AND_ORGANIZATION_ASSIGNMENT ( #54, #112, ( #172 ) ) ;
#5 = DIRECTION ( 'NONE',  ( 1.000000000000000000, 0.0000000000000000000, -0.0000000000000000000 ) ) ;
#6 = CALENDAR_DATE ( 2020, 31, 7 ) ;
#7 = DIRECTION ( 'NONE',  ( 0.0000000000000000000, 0.0000000000000000000, 1.000000000000000000 ) ) ;
#8 = PRODUCT_DEFINITION_FORMATION_WITH_SPECIFIED_SOURCE ( 'ANY', '', #75, .NOT_KNOWN. ) ;
#9 = ORIENTED_EDGE ( 'NONE', *, *, #66, .F. ) ;
#10 = AXIS2_PLACEMENT_3D ( 'NONE', #132, #62, #45 ) ;
#11 = PRODUCT_RELATED_PRODUCT_CATEGORY ( 'detail', '', ( #75 ) ) ;
#12 = DATE_AND_TIME ( #102, #89 ) ;
#13 = ORIENTED_EDGE ( 'NONE', *, *, #117, .F. ) ;
#14 = CYLINDRICAL_SURFACE ( 'NONE', #10, 12.69999999999999929 ) ;
#15 =( GEOMETRIC_REPRESENTATION_CONTEXT ( 3 ) GLOBAL_UNCERTAINTY_ASSIGNED_CONTEXT ( ( #47 ) ) GLOBAL_UNIT_ASSIGNED_CONTEXT ( ( #82, #154, #21 ) ) REPRESENTATION_CONTEXT ( 'NONE', 'WORKASPACE' ) );
#16 = ADVANCED_FACE ( 'NONE', ( #160 ), #14, .T. ) ;
#17 = CC_DESIGN_PERSON_AND_ORGANIZATION_ASSIGNMENT ( #49, #149, ( #8 ) ) ;
#18 = COORDINATED_UNIVERSAL_TIME_OFFSET ( 5, 0, .BEHIND. ) ;
#19 = VERTEX_POINT ( 'NONE', #141 ) ;
#20 = CARTESIAN_POINT ( 'NONE',  ( 12.69999999999999929, 1.555301434917138433E-15, 1.000000000000000000 ) ) ;
#21 =( NAMED_UNIT ( * ) SI_UNIT ( $, .STERADIAN. ) SOLID_ANGLE_UNIT ( ) );
#22 = DIRECTION ( 'NONE',  ( 1.000000000000000000, 0.0000000000000000000, 0.0000000000000000000 ) ) ;
#23 = AXIS2_PLACEMENT_3D ( 'NONE', #40, #137, #5 ) ;
#24 = CARTESIAN_POINT ( 'NONE',  ( 0.0000000000000000000, 0.0000000000000000000, -1.000000000000000000 ) ) ;
#25 = DIRECTION ( 'NONE',  ( 1.000000000000000000, 0.0000000000000000000, -0.0000000000000000000 ) ) ;
#26 = DIRECTION ( 'NONE',  ( -0.0000000000000000000, -0.0000000000000000000, -1.000000000000000000 ) ) ;
#27 = APPROVAL_STATUS ( 'not_yet_approved' ) ;
#28 = AXIS2_PLACEMENT_3D ( 'NONE', #164, #26, #92 ) ;
#29 = CC_DESIGN_PERSON_AND_ORGANIZATION_ASSIGNMENT ( #140, #64, ( #75 ) ) ;
#30 = LOCAL_TIME ( 14, 44, 0.0000000000000000000, #139 ) ;
#31 = VERTEX_POINT ( 'NONE', #73 ) ;
#32 = DATE_AND_TIME ( #77, #71 ) ;
#33 = AXIS2_PLACEMENT_3D ( 'NONE', #24, #81, #168 ) ;
#34 = DIRECTION ( 'NONE',  ( -0.0000000000000000000, -0.0000000000000000000, -1.000000000000000000 ) ) ;
#35 = PRODUCT_DEFINITION ( 'UNKNOWN', '', #8, #109 ) ;
#36 = APPROVAL_ROLE ( '' ) ;
#37 = ORIENTED_EDGE ( 'NONE', *, *, #38, .F. ) ;
#38 = EDGE_CURVE ( 'NONE', #42, #19, #107, .T. ) ;
#39 = DIRECTION ( 'NONE',  ( 1.000000000000000000, 0.0000000000000000000, 0.0000000000000000000 ) ) ;
#40 = CARTESIAN_POINT ( 'NONE',  ( 0.0000000000000000000, 0.0000000000000000000, -1.000000000000000000 ) ) ;
#41 = SECURITY_CLASSIFICATION_LEVEL ( 'unclassified' ) ;
#42 = VERTEX_POINT ( 'NONE', #20 ) ;
#43 = DATE_AND_TIME ( #6, #30 ) ;
#44 = CC_DESIGN_SECURITY_CLASSIFICATION ( #172, ( #8 ) ) ;
#45 = DIRECTION ( 'NONE',  ( -1.000000000000000000, 0.0000000000000000000, 0.0000000000000000000 ) ) ;
#46 = PERSON_AND_ORGANIZATION ( #144, #63 ) ;
#47 = UNCERTAINTY_MEASURE_WITH_UNIT (LENGTH_MEASURE( 1.000000000000000082E-05 ), #82, 'distance_accuracy_value', 'NONE');
#48 = CC_DESIGN_DATE_AND_TIME_ASSIGNMENT ( #1, #56, ( #172 ) ) ;
#49 = PERSON_AND_ORGANIZATION ( #144, #63 ) ;
#50 = FACE_OUTER_BOUND ( 'NONE', #90, .T. ) ;
#51 = CARTESIAN_POINT ( 'NONE',  ( 0.0000000000000000000, 0.0000000000000000000, 1.000000000000000000 ) ) ;
#52 = CARTESIAN_POINT ( 'NONE',  ( 0.0000000000000000000, 0.0000000000000000000, 0.0000000000000000000 ) ) ;
#53 = MECHANICAL_CONTEXT ( 'NONE', #95, 'mechanical' ) ;
#54 = PERSON_AND_ORGANIZATION ( #144, #63 ) ;
#55 = ORIENTED_EDGE ( 'NONE', *, *, #117, .T. ) ;
#56 = DATE_TIME_ROLE ( 'classification_date' ) ;
#57 = EDGE_CURVE ( 'NONE', #31, #72, #87, .T. ) ;
#58 = LINE ( 'NONE', #162, #133 ) ;
#59 = APPROVAL_DATE_TIME ( #12, #101 ) ;
#60 = CC_DESIGN_PERSON_AND_ORGANIZATION_ASSIGNMENT ( #123, #84, ( #8 ) ) ;
#61 = EDGE_CURVE ( 'NONE', #42, #31, #58, .T. ) ;
#62 = DIRECTION ( 'NONE',  ( -0.0000000000000000000, -0.0000000000000000000, -1.000000000000000000 ) ) ;
#63 = ORGANIZATION ( 'UNSPECIFIED', 'UNSPECIFIED', '' ) ;
#64 = PERSON_AND_ORGANIZATION_ROLE ( 'design_owner' ) ;
#65 = DATE_TIME_ROLE ( 'creation_date' ) ;
#66 = EDGE_CURVE ( 'NONE', #19, #72, #152, .T. ) ;
#67 = CC_DESIGN_DATE_AND_TIME_ASSIGNMENT ( #106, #65, ( #35 ) ) ;
#68 = DIRECTION ( 'NONE',  ( 0.0000000000000000000, 0.0000000000000000000, 1.000000000000000000 ) ) ;
#69 = CARTESIAN_POINT ( 'NONE',  ( -12.69999999999999929, 0.0000000000000000000, -1.000000000000000000 ) ) ;
#70 = ORIENTED_EDGE ( 'NONE', *, *, #38, .T. ) ;
#71 = LOCAL_TIME ( 14, 44, 0.0000000000000000000, #18 ) ;
#72 = VERTEX_POINT ( 'NONE', #69 ) ;
#73 = CARTESIAN_POINT ( 'NONE',  ( 12.69999999999999929, 1.555301434917138433E-15, -1.000000000000000000 ) ) ;
#74 = ORIENTED_EDGE ( 'NONE', *, *, #104, .F. ) ;
#75 = PRODUCT ( 'Web Model 15424_15432', 'Web Model 15424_15432', '', ( #53 ) ) ;
#76 = ADVANCED_FACE ( 'NONE', ( #50 ), #169, .T. ) ;
#77 = CALENDAR_DATE ( 2020, 31, 7 ) ;
#78 = ORIENTED_EDGE ( 'NONE', *, *, #61, .T. ) ;
#79 = APPROVAL_STATUS ( 'not_yet_approved' ) ;
#80 = CARTESIAN_POINT ( 'NONE',  ( -12.69999999999999929, 0.0000000000000000000, 1.000000000000000000 ) ) ;
#81 = DIRECTION ( 'NONE',  ( 0.0000000000000000000, 0.0000000000000000000, 1.000000000000000000 ) ) ;
#82 =( LENGTH_UNIT ( ) NAMED_UNIT ( * ) SI_UNIT ( .MILLI., .METRE. ) );
#83 = FACE_OUTER_BOUND ( 'NONE', #167, .T. ) ;
#84 = PERSON_AND_ORGANIZATION_ROLE ( 'design_supplier' ) ;
#85 = AXIS2_PLACEMENT_3D ( 'NONE', #52, #68, #22 ) ;
#86 = APPROVAL_PERSON_ORGANIZATION ( #150, #97, #125 ) ;
#87 = CIRCLE ( 'NONE', #129, 12.69999999999999929 ) ;
#88 = ADVANCED_FACE ( 'NONE', ( #153 ), #124, .F. ) ;
#89 = LOCAL_TIME ( 14, 44, 0.0000000000000000000, #131 ) ;
#90 = EDGE_LOOP ( 'NONE', ( #37, #78, #130, #9 ) ) ;
#91 = CARTESIAN_POINT ( 'NONE',  ( 0.0000000000000000000, 0.0000000000000000000, 1.000000000000000000 ) ) ;
#92 = DIRECTION ( 'NONE',  ( -1.000000000000000000, 0.0000000000000000000, 0.0000000000000000000 ) ) ;
#93 = AXIS2_PLACEMENT_3D ( 'NONE', #51, #165, #39 ) ;
#94 = DIRECTION ( 'NONE',  ( 1.000000000000000000, 0.0000000000000000000, 0.0000000000000000000 ) ) ;
#95 = APPLICATION_CONTEXT ( 'configuration controlled 3d designs of mechanical parts and assemblies' ) ;
#96 = APPROVAL_PERSON_ORGANIZATION ( #159, #99, #126 ) ;
#97 = APPROVAL ( #27, 'UNSPECIFIED' ) ;
#98 = ORIENTED_EDGE ( 'NONE', *, *, #57, .F. ) ;
#99 = APPROVAL ( #128, 'UNSPECIFIED' ) ;
#100 = ORIENTED_EDGE ( 'NONE', *, *, #66, .T. ) ;
#101 = APPROVAL ( #79, 'UNSPECIFIED' ) ;
#102 = CALENDAR_DATE ( 2020, 31, 7 ) ;
#103 = MANIFOLD_SOLID_BREP ( 'Boss-Extrude1', #143 ) ;
#104 = EDGE_CURVE ( 'NONE', #72, #31, #115, .T. ) ;
#105 = DIRECTION ( 'NONE',  ( 0.0000000000000000000, 0.0000000000000000000, 1.000000000000000000 ) ) ;
#106 = DATE_AND_TIME ( #119, #174 ) ;
#107 = CIRCLE ( 'NONE', #93, 12.69999999999999929 ) ;
#108 = PLANE ( 'NONE',  #173 ) ;
#109 = DESIGN_CONTEXT ( 'detailed design', #2, 'design' ) ;
#110 = DIRECTION ( 'NONE',  ( 1.000000000000000000, 0.0000000000000000000, 0.0000000000000000000 ) ) ;
#111 = CIRCLE ( 'NONE', #118, 12.69999999999999929 ) ;
#112 = PERSON_AND_ORGANIZATION_ROLE ( 'classification_officer' ) ;
#113 = CC_DESIGN_APPROVAL ( #101, ( #35 ) ) ;
#114 = SHAPE_DEFINITION_REPRESENTATION ( #135, #155 ) ;
#115 = CIRCLE ( 'NONE', #33, 12.69999999999999929 ) ;
#116 = VECTOR ( 'NONE', #3, 1000.000000000000000 ) ;
#117 = EDGE_CURVE ( 'NONE', #19, #42, #111, .T. ) ;
#118 = AXIS2_PLACEMENT_3D ( 'NONE', #91, #147, #94 ) ;
#119 = CALENDAR_DATE ( 2020, 31, 7 ) ;
#120 = APPLICATION_PROTOCOL_DEFINITION ( 'international standard', 'config_control_design', 1994, #2 ) ;
#121 = CARTESIAN_POINT ( 'NONE',  ( 0.0000000000000000000, 0.0000000000000000000, 1.000000000000000000 ) ) ;
#122 = CC_DESIGN_PERSON_AND_ORGANIZATION_ASSIGNMENT ( #142, #136, ( #35 ) ) ;
#123 = PERSON_AND_ORGANIZATION ( #144, #63 ) ;
#124 = PLANE ( 'NONE',  #23 ) ;
#125 = APPROVAL_ROLE ( '' ) ;
#126 = APPROVAL_ROLE ( '' ) ;
#127 = CALENDAR_DATE ( 2020, 31, 7 ) ;
#128 = APPROVAL_STATUS ( 'not_yet_approved' ) ;
#129 = AXIS2_PLACEMENT_3D ( 'NONE', #157, #105, #110 ) ;
#130 = ORIENTED_EDGE ( 'NONE', *, *, #57, .T. ) ;
#131 = COORDINATED_UNIVERSAL_TIME_OFFSET ( 5, 0, .BEHIND. ) ;
#132 = CARTESIAN_POINT ( 'NONE',  ( 0.0000000000000000000, 0.0000000000000000000, 1.000000000000000000 ) ) ;
#133 = VECTOR ( 'NONE', #34, 1000.000000000000000 ) ;
#134 = ORIENTED_EDGE ( 'NONE', *, *, #61, .F. ) ;
#135 = PRODUCT_DEFINITION_SHAPE ( 'NONE', 'NONE',  #35 ) ;
#136 = PERSON_AND_ORGANIZATION_ROLE ( 'creator' ) ;
#137 = DIRECTION ( 'NONE',  ( 0.0000000000000000000, 0.0000000000000000000, 1.000000000000000000 ) ) ;
#138 = APPLICATION_PROTOCOL_DEFINITION ( 'international standard', 'config_control_design', 1994, #95 ) ;
#139 = COORDINATED_UNIVERSAL_TIME_OFFSET ( 5, 0, .BEHIND. ) ;
#140 = PERSON_AND_ORGANIZATION ( #144, #63 ) ;
#141 = CARTESIAN_POINT ( 'NONE',  ( -12.69999999999999929, 0.0000000000000000000, 1.000000000000000000 ) ) ;
#142 = PERSON_AND_ORGANIZATION ( #144, #63 ) ;
#143 = CLOSED_SHELL ( 'NONE', ( #76, #16, #145, #88 ) ) ;
#144 = PERSON ( 'UNSPECIFIED', 'UNSPECIFIED', 'UNSPECIFIED', ('UNSPECIFIED'), ('UNSPECIFIED'), ('UNSPECIFIED') ) ;
#145 = ADVANCED_FACE ( 'NONE', ( #83 ), #108, .T. ) ;
#146 = CC_DESIGN_APPROVAL ( #99, ( #8 ) ) ;
#147 = DIRECTION ( 'NONE',  ( 0.0000000000000000000, 0.0000000000000000000, 1.000000000000000000 ) ) ;
#148 = APPROVAL_DATE_TIME ( #43, #97 ) ;
#149 = PERSON_AND_ORGANIZATION_ROLE ( 'creator' ) ;
#150 = PERSON_AND_ORGANIZATION ( #144, #63 ) ;
#151 = COORDINATED_UNIVERSAL_TIME_OFFSET ( 5, 0, .BEHIND. ) ;
#152 = LINE ( 'NONE', #80, #116 ) ;
#153 = FACE_OUTER_BOUND ( 'NONE', #156, .T. ) ;
#154 =( NAMED_UNIT ( * ) PLANE_ANGLE_UNIT ( ) SI_UNIT ( $, .RADIAN. ) );
#155 = ADVANCED_BREP_SHAPE_REPRESENTATION ( 'Web Model 15424_15432', ( #103, #85 ), #15 ) ;
#156 = EDGE_LOOP ( 'NONE', ( #74, #98 ) ) ;
#157 = CARTESIAN_POINT ( 'NONE',  ( 0.0000000000000000000, 0.0000000000000000000, -1.000000000000000000 ) ) ;
#158 = APPROVAL_DATE_TIME ( #32, #99 ) ;
#159 = PERSON_AND_ORGANIZATION ( #144, #63 ) ;
#160 = FACE_OUTER_BOUND ( 'NONE', #171, .T. ) ;
#161 = CC_DESIGN_APPROVAL ( #97, ( #172 ) ) ;
#162 = CARTESIAN_POINT ( 'NONE',  ( 12.69999999999999929, 1.555301434917138433E-15, 1.000000000000000000 ) ) ;
#163 = ORIENTED_EDGE ( 'NONE', *, *, #104, .T. ) ;
#164 = CARTESIAN_POINT ( 'NONE',  ( 0.0000000000000000000, 0.0000000000000000000, 1.000000000000000000 ) ) ;
#165 = DIRECTION ( 'NONE',  ( 0.0000000000000000000, 0.0000000000000000000, 1.000000000000000000 ) ) ;
#166 = LOCAL_TIME ( 14, 44, 0.0000000000000000000, #175 ) ;
#167 = EDGE_LOOP ( 'NONE', ( #55, #70 ) ) ;
#168 = DIRECTION ( 'NONE',  ( 1.000000000000000000, 0.0000000000000000000, 0.0000000000000000000 ) ) ;
#169 = CYLINDRICAL_SURFACE ( 'NONE', #28, 12.69999999999999929 ) ;
#170 = APPROVAL_PERSON_ORGANIZATION ( #46, #101, #36 ) ;
#171 = EDGE_LOOP ( 'NONE', ( #134, #13, #100, #163 ) ) ;
#172 = SECURITY_CLASSIFICATION ( '', '', #41 ) ;
#173 = AXIS2_PLACEMENT_3D ( 'NONE', #121, #7, #25 ) ;
#174 = LOCAL_TIME ( 14, 44, 0.0000000000000000000, #151 ) ;
#175 = COORDINATED_UNIVERSAL_TIME_OFFSET ( 5, 0, .BEHIND. ) ;
ENDSEC;
END-ISO-10303-21;
