ISO-10303-21;
HEADER;
FILE_DESCRIPTION (( 'STEP AP203' ),
    '1' );
FILE_NAME ('Web Model 32949_45638.step',
    '2017-04-10T16:18:36',
    ( '' ),
    ( '' ),
    'SwSTEP 2.0',
    'SolidWorks 2016',
    '' );
FILE_SCHEMA (( 'CONFIG_CONTROL_DESIGN' ));
ENDSEC;

DATA;
#1 = DATE_TIME_ROLE ( 'classification_date' ) ;
#2 = FACE_OUTER_BOUND ( 'NONE', #81, .T. ) ;
#3 = EDGE_CURVE ( 'NONE', #17, #111, #153, .T. ) ;
#4 = APPROVAL_DATE_TIME ( #143, #57 ) ;
#5 = VECTOR ( 'NONE', #103, 1000.000000000000000 ) ;
#6 = VERTEX_POINT ( 'NONE', #119 ) ;
#7 = DATE_AND_TIME ( #54, #20 ) ;
#8 = AXIS2_PLACEMENT_3D ( 'NONE', #149, #148, #122 ) ;
#9 = LOCAL_TIME ( 12, 18, 36.00000000000000000, #24 ) ;
#10 = CIRCLE ( 'NONE', #70, 7.500000000000000000 ) ;
#11 = APPLICATION_PROTOCOL_DEFINITION ( 'international standard', 'config_control_design', 1994, #134 ) ;
#12 = DIRECTION ( 'NONE',  ( 0.0000000000000000000, 0.0000000000000000000, 1.000000000000000000 ) ) ;
#13 = CARTESIAN_POINT ( 'NONE',  ( 0.0000000000000000000, 0.0000000000000000000, 2.000000000000000000 ) ) ;
#14 = DIRECTION ( 'NONE',  ( 1.000000000000000000, 0.0000000000000000000, -0.0000000000000000000 ) ) ;
#15 = CALENDAR_DATE ( 2017, 10, 4 ) ;
#16 = APPLICATION_PROTOCOL_DEFINITION ( 'international standard', 'config_control_design', 1994, #92 ) ;
#17 = VERTEX_POINT ( 'NONE', #25 ) ;
#18 = APPROVAL_ROLE ( '' ) ;
#19 = EDGE_CURVE ( 'NONE', #159, #6, #10, .T. ) ;
#20 = LOCAL_TIME ( 12, 18, 36.00000000000000000, #157 ) ;
#21 = PRODUCT ( 'Web Model 32949_45638', 'Web Model 32949_45638', '', ( #120 ) ) ;
#22 = COORDINATED_UNIVERSAL_TIME_OFFSET ( 5, 0, .BEHIND. ) ;
#23 = CC_DESIGN_PERSON_AND_ORGANIZATION_ASSIGNMENT ( #37, #152, ( #117 ) ) ;
#24 = COORDINATED_UNIVERSAL_TIME_OFFSET ( 5, 0, .BEHIND. ) ;
#25 = CARTESIAN_POINT ( 'NONE',  ( 7.500000000000000000, 9.184850993605147900E-016, 0.0000000000000000000 ) ) ;
#26 = DIRECTION ( 'NONE',  ( 0.0000000000000000000, 0.0000000000000000000, 1.000000000000000000 ) ) ;
#27 = AXIS2_PLACEMENT_3D ( 'NONE', #55, #69, #165 ) ;
#28 = APPROVAL_ROLE ( '' ) ;
#29 = EDGE_CURVE ( 'NONE', #6, #159, #114, .T. ) ;
#30 = ORGANIZATION ( 'UNSPECIFIED', 'UNSPECIFIED', '' ) ;
#31 = DATE_AND_TIME ( #174, #107 ) ;
#32 = ADVANCED_FACE ( 'NONE', ( #78 ), #110, .T. ) ;
#33 =( GEOMETRIC_REPRESENTATION_CONTEXT ( 3 ) GLOBAL_UNCERTAINTY_ASSIGNED_CONTEXT ( ( #129 ) ) GLOBAL_UNIT_ASSIGNED_CONTEXT ( ( #115, #142, #64 ) ) REPRESENTATION_CONTEXT ( 'NONE', 'WORKASPACE' ) );
#34 = PLANE ( 'NONE',  #27 ) ;
#35 = DIRECTION ( 'NONE',  ( -0.0000000000000000000, -0.0000000000000000000, -1.000000000000000000 ) ) ;
#36 = EDGE_CURVE ( 'NONE', #159, #111, #135, .T. ) ;
#37 = PERSON_AND_ORGANIZATION ( #62, #30 ) ;
#38 = DATE_TIME_ROLE ( 'creation_date' ) ;
#39 = CIRCLE ( 'NONE', #96, 7.500000000000000000 ) ;
#40 = ORIENTED_EDGE ( 'NONE', *, *, #36, .T. ) ;
#41 = PERSON_AND_ORGANIZATION ( #62, #30 ) ;
#42 = AXIS2_PLACEMENT_3D ( 'NONE', #51, #106, #66 ) ;
#43 = CALENDAR_DATE ( 2017, 10, 4 ) ;
#44 = EDGE_LOOP ( 'NONE', ( #58, #150 ) ) ;
#45 = DATE_AND_TIME ( #93, #60 ) ;
#46 = EDGE_CURVE ( 'NONE', #111, #17, #39, .T. ) ;
#47 = ADVANCED_FACE ( 'NONE', ( #74 ), #34, .T. ) ;
#48 = DATE_AND_TIME ( #43, #9 ) ;
#49 = ORIENTED_EDGE ( 'NONE', *, *, #46, .T. ) ;
#50 = CC_DESIGN_APPROVAL ( #170, ( #63 ) ) ;
#51 = CARTESIAN_POINT ( 'NONE',  ( 0.0000000000000000000, 0.0000000000000000000, 2.000000000000000000 ) ) ;
#52 = CARTESIAN_POINT ( 'NONE',  ( -7.500000000000000000, 0.0000000000000000000, 0.0000000000000000000 ) ) ;
#53 = CLOSED_SHELL ( 'NONE', ( #32, #102, #47, #158 ) ) ;
#54 = CALENDAR_DATE ( 2017, 10, 4 ) ;
#55 = CARTESIAN_POINT ( 'NONE',  ( 0.0000000000000000000, 0.0000000000000000000, 2.000000000000000000 ) ) ;
#56 = CARTESIAN_POINT ( 'NONE',  ( 0.0000000000000000000, 0.0000000000000000000, 0.0000000000000000000 ) ) ;
#57 = APPROVAL ( #136, 'UNSPECIFIED' ) ;
#58 = ORIENTED_EDGE ( 'NONE', *, *, #19, .T. ) ;
#59 = APPROVAL_ROLE ( '' ) ;
#60 = LOCAL_TIME ( 12, 18, 36.00000000000000000, #22 ) ;
#61 = AXIS2_PLACEMENT_3D ( 'NONE', #172, #26, #131 ) ;
#62 = PERSON ( 'UNSPECIFIED', 'UNSPECIFIED', 'UNSPECIFIED', ('UNSPECIFIED'), ('UNSPECIFIED'), ('UNSPECIFIED') ) ;
#63 = SECURITY_CLASSIFICATION ( '', '', #167 ) ;
#64 =( NAMED_UNIT ( * ) SI_UNIT ( $, .STERADIAN. ) SOLID_ANGLE_UNIT ( ) );
#65 = CC_DESIGN_APPROVAL ( #57, ( #117 ) ) ;
#66 = DIRECTION ( 'NONE',  ( -1.000000000000000000, 0.0000000000000000000, 0.0000000000000000000 ) ) ;
#67 = MANIFOLD_SOLID_BREP ( 'Extrude1', #53 ) ;
#68 = CARTESIAN_POINT ( 'NONE',  ( 0.0000000000000000000, 0.0000000000000000000, 0.0000000000000000000 ) ) ;
#69 = DIRECTION ( 'NONE',  ( 0.0000000000000000000, 0.0000000000000000000, 1.000000000000000000 ) ) ;
#70 = AXIS2_PLACEMENT_3D ( 'NONE', #13, #79, #161 ) ;
#71 = PERSON_AND_ORGANIZATION_ROLE ( 'design_supplier' ) ;
#72 = CYLINDRICAL_SURFACE ( 'NONE', #8, 7.500000000000000000 ) ;
#73 = PERSON_AND_ORGANIZATION ( #62, #30 ) ;
#74 = FACE_OUTER_BOUND ( 'NONE', #44, .T. ) ;
#75 = PERSON_AND_ORGANIZATION ( #62, #30 ) ;
#76 = AXIS2_PLACEMENT_3D ( 'NONE', #95, #173, #80 ) ;
#77 = APPROVAL_DATE_TIME ( #48, #170 ) ;
#78 = FACE_OUTER_BOUND ( 'NONE', #118, .T. ) ;
#79 = DIRECTION ( 'NONE',  ( 0.0000000000000000000, 0.0000000000000000000, 1.000000000000000000 ) ) ;
#80 = DIRECTION ( 'NONE',  ( 1.000000000000000000, 0.0000000000000000000, 0.0000000000000000000 ) ) ;
#81 = EDGE_LOOP ( 'NONE', ( #87, #101 ) ) ;
#82 = APPROVAL_PERSON_ORGANIZATION ( #41, #57, #59 ) ;
#83 = PERSON_AND_ORGANIZATION_ROLE ( 'classification_officer' ) ;
#84 = ORIENTED_EDGE ( 'NONE', *, *, #29, .F. ) ;
#85 = DIRECTION ( 'NONE',  ( 1.000000000000000000, 0.0000000000000000000, 0.0000000000000000000 ) ) ;
#86 = APPROVAL_DATE_TIME ( #45, #168 ) ;
#87 = ORIENTED_EDGE ( 'NONE', *, *, #46, .F. ) ;
#88 = CC_DESIGN_PERSON_AND_ORGANIZATION_ASSIGNMENT ( #112, #83, ( #63 ) ) ;
#89 = ORIENTED_EDGE ( 'NONE', *, *, #169, .T. ) ;
#90 = PERSON_AND_ORGANIZATION ( #62, #30 ) ;
#91 = ORIENTED_EDGE ( 'NONE', *, *, #19, .F. ) ;
#92 = APPLICATION_CONTEXT ( 'configuration controlled 3d designs of mechanical parts and assemblies' ) ;
#93 = CALENDAR_DATE ( 2017, 10, 4 ) ;
#94 = DIRECTION ( 'NONE',  ( 0.0000000000000000000, 0.0000000000000000000, 1.000000000000000000 ) ) ;
#95 = CARTESIAN_POINT ( 'NONE',  ( 0.0000000000000000000, 0.0000000000000000000, 2.000000000000000000 ) ) ;
#96 = AXIS2_PLACEMENT_3D ( 'NONE', #121, #94, #147 ) ;
#97 = EDGE_LOOP ( 'NONE', ( #155, #91, #40, #49 ) ) ;
#98 = APPROVAL_STATUS ( 'not_yet_approved' ) ;
#99 = CC_DESIGN_DATE_AND_TIME_ASSIGNMENT ( #31, #1, ( #63 ) ) ;
#100 = ORIENTED_EDGE ( 'NONE', *, *, #3, .T. ) ;
#101 = ORIENTED_EDGE ( 'NONE', *, *, #3, .F. ) ;
#102 = ADVANCED_FACE ( 'NONE', ( #141 ), #72, .T. ) ;
#103 = DIRECTION ( 'NONE',  ( -0.0000000000000000000, -0.0000000000000000000, -1.000000000000000000 ) ) ;
#104 = CARTESIAN_POINT ( 'NONE',  ( 7.500000000000000000, 9.184850993605147900E-016, 2.000000000000000000 ) ) ;
#105 = PRODUCT_DEFINITION_SHAPE ( 'NONE', 'NONE',  #113 ) ;
#106 = DIRECTION ( 'NONE',  ( -0.0000000000000000000, -0.0000000000000000000, -1.000000000000000000 ) ) ;
#107 = LOCAL_TIME ( 12, 18, 36.00000000000000000, #151 ) ;
#108 = PERSON_AND_ORGANIZATION_ROLE ( 'design_owner' ) ;
#109 = APPROVAL_STATUS ( 'not_yet_approved' ) ;
#110 = CYLINDRICAL_SURFACE ( 'NONE', #42, 7.500000000000000000 ) ;
#111 = VERTEX_POINT ( 'NONE', #52 ) ;
#112 = PERSON_AND_ORGANIZATION ( #62, #30 ) ;
#113 = PRODUCT_DEFINITION ( 'UNKNOWN', '', #117, #140 ) ;
#114 = CIRCLE ( 'NONE', #76, 7.500000000000000000 ) ;
#115 =( LENGTH_UNIT ( ) NAMED_UNIT ( * ) SI_UNIT ( .MILLI., .METRE. ) );
#116 = COORDINATED_UNIVERSAL_TIME_OFFSET ( 5, 0, .BEHIND. ) ;
#117 = PRODUCT_DEFINITION_FORMATION_WITH_SPECIFIED_SOURCE ( 'ANY', '', #21, .NOT_KNOWN. ) ;
#118 = EDGE_LOOP ( 'NONE', ( #84, #89, #100, #126 ) ) ;
#119 = CARTESIAN_POINT ( 'NONE',  ( 7.500000000000000000, 9.184850993605147900E-016, 2.000000000000000000 ) ) ;
#120 = MECHANICAL_CONTEXT ( 'NONE', #134, 'mechanical' ) ;
#121 = CARTESIAN_POINT ( 'NONE',  ( 0.0000000000000000000, 0.0000000000000000000, 0.0000000000000000000 ) ) ;
#122 = DIRECTION ( 'NONE',  ( -1.000000000000000000, 0.0000000000000000000, 0.0000000000000000000 ) ) ;
#123 = PERSON_AND_ORGANIZATION ( #62, #30 ) ;
#124 = PRODUCT_RELATED_PRODUCT_CATEGORY ( 'detail', '', ( #21 ) ) ;
#125 = PERSON_AND_ORGANIZATION_ROLE ( 'creator' ) ;
#126 = ORIENTED_EDGE ( 'NONE', *, *, #36, .F. ) ;
#127 = PERSON_AND_ORGANIZATION ( #62, #30 ) ;
#128 = CC_DESIGN_DATE_AND_TIME_ASSIGNMENT ( #7, #38, ( #113 ) ) ;
#129 = UNCERTAINTY_MEASURE_WITH_UNIT (LENGTH_MEASURE( 1.000000000000000100E-005 ), #115, 'distance_accuracy_value', 'NONE');
#130 = CC_DESIGN_PERSON_AND_ORGANIZATION_ASSIGNMENT ( #90, #108, ( #21 ) ) ;
#131 = DIRECTION ( 'NONE',  ( 1.000000000000000000, 0.0000000000000000000, 0.0000000000000000000 ) ) ;
#132 = CC_DESIGN_SECURITY_CLASSIFICATION ( #63, ( #117 ) ) ;
#133 = CARTESIAN_POINT ( 'NONE',  ( -7.500000000000000000, 0.0000000000000000000, 2.000000000000000000 ) ) ;
#134 = APPLICATION_CONTEXT ( 'configuration controlled 3d designs of mechanical parts and assemblies' ) ;
#135 = LINE ( 'NONE', #146, #5 ) ;
#136 = APPROVAL_STATUS ( 'not_yet_approved' ) ;
#137 = CC_DESIGN_PERSON_AND_ORGANIZATION_ASSIGNMENT ( #123, #125, ( #113 ) ) ;
#138 = SHAPE_DEFINITION_REPRESENTATION ( #105, #160 ) ;
#139 = AXIS2_PLACEMENT_3D ( 'NONE', #56, #164, #85 ) ;
#140 = DESIGN_CONTEXT ( 'detailed design', #92, 'design' ) ;
#141 = FACE_OUTER_BOUND ( 'NONE', #97, .T. ) ;
#142 =( NAMED_UNIT ( * ) PLANE_ANGLE_UNIT ( ) SI_UNIT ( $, .RADIAN. ) );
#143 = DATE_AND_TIME ( #15, #154 ) ;
#144 = CC_DESIGN_PERSON_AND_ORGANIZATION_ASSIGNMENT ( #75, #71, ( #117 ) ) ;
#145 = LINE ( 'NONE', #104, #171 ) ;
#146 = CARTESIAN_POINT ( 'NONE',  ( -7.500000000000000000, 0.0000000000000000000, 2.000000000000000000 ) ) ;
#147 = DIRECTION ( 'NONE',  ( 1.000000000000000000, 0.0000000000000000000, 0.0000000000000000000 ) ) ;
#148 = DIRECTION ( 'NONE',  ( -0.0000000000000000000, -0.0000000000000000000, -1.000000000000000000 ) ) ;
#149 = CARTESIAN_POINT ( 'NONE',  ( 0.0000000000000000000, 0.0000000000000000000, 2.000000000000000000 ) ) ;
#150 = ORIENTED_EDGE ( 'NONE', *, *, #29, .T. ) ;
#151 = COORDINATED_UNIVERSAL_TIME_OFFSET ( 5, 0, .BEHIND. ) ;
#152 = PERSON_AND_ORGANIZATION_ROLE ( 'creator' ) ;
#153 = CIRCLE ( 'NONE', #61, 7.500000000000000000 ) ;
#154 = LOCAL_TIME ( 12, 18, 36.00000000000000000, #116 ) ;
#155 = ORIENTED_EDGE ( 'NONE', *, *, #169, .F. ) ;
#156 = CC_DESIGN_APPROVAL ( #168, ( #113 ) ) ;
#157 = COORDINATED_UNIVERSAL_TIME_OFFSET ( 5, 0, .BEHIND. ) ;
#158 = ADVANCED_FACE ( 'NONE', ( #2 ), #162, .F. ) ;
#159 = VERTEX_POINT ( 'NONE', #133 ) ;
#160 = ADVANCED_BREP_SHAPE_REPRESENTATION ( 'Web Model 32949_45638', ( #67, #139 ), #33 ) ;
#161 = DIRECTION ( 'NONE',  ( 1.000000000000000000, 0.0000000000000000000, 0.0000000000000000000 ) ) ;
#162 = PLANE ( 'NONE',  #175 ) ;
#163 = APPROVAL_PERSON_ORGANIZATION ( #127, #168, #28 ) ;
#164 = DIRECTION ( 'NONE',  ( 0.0000000000000000000, 0.0000000000000000000, 1.000000000000000000 ) ) ;
#165 = DIRECTION ( 'NONE',  ( 1.000000000000000000, 0.0000000000000000000, -0.0000000000000000000 ) ) ;
#166 = APPROVAL_PERSON_ORGANIZATION ( #73, #170, #18 ) ;
#167 = SECURITY_CLASSIFICATION_LEVEL ( 'unclassified' ) ;
#168 = APPROVAL ( #109, 'UNSPECIFIED' ) ;
#169 = EDGE_CURVE ( 'NONE', #6, #17, #145, .T. ) ;
#170 = APPROVAL ( #98, 'UNSPECIFIED' ) ;
#171 = VECTOR ( 'NONE', #35, 1000.000000000000000 ) ;
#172 = CARTESIAN_POINT ( 'NONE',  ( 0.0000000000000000000, 0.0000000000000000000, 0.0000000000000000000 ) ) ;
#173 = DIRECTION ( 'NONE',  ( 0.0000000000000000000, 0.0000000000000000000, 1.000000000000000000 ) ) ;
#174 = CALENDAR_DATE ( 2017, 10, 4 ) ;
#175 = AXIS2_PLACEMENT_3D ( 'NONE', #68, #12, #14 ) ;
ENDSEC;
END-ISO-10303-21;
