ISO-10303-21;
HEADER;
FILE_DESCRIPTION (( 'STEP AP203' ),
    '1' );
FILE_NAME ('Web Model 49586_49586.step',
    '2019-04-23T14:15:13',
    ( '' ),
    ( '' ),
    'SwSTEP 2.0',
    'SolidWorks 2018',
    '' );
FILE_SCHEMA (( 'CONFIG_CONTROL_DESIGN' ));
ENDSEC;

DATA;
#1 = CARTESIAN_POINT ( 'NONE',  ( 0.0000000000000000000, 0.0000000000000000000, 0.0000000000000000000 ) ) ;
#2 = CARTESIAN_POINT ( 'NONE',  ( 25.00000000000000000, -25.00000000000000000, 0.0000000000000000000 ) ) ;
#3 = ADVANCED_FACE ( 'NONE', ( #68 ), #205, .T. ) ;
#4 = APPROVAL_ROLE ( '' ) ;
#5 = LINE ( 'NONE', #116, #57 ) ;
#6 = DIRECTION ( 'NONE',  ( 0.0000000000000000000, 1.000000000000000000, 0.0000000000000000000 ) ) ;
#7 = PLANE ( 'NONE',  #188 ) ;
#8 = CARTESIAN_POINT ( 'NONE',  ( -25.00000000000000000, 25.00000000000000000, 3.000000000000000000 ) ) ;
#9 = CC_DESIGN_APPROVAL ( #226, ( #156 ) ) ;
#10 = LINE ( 'NONE', #21, #180 ) ;
#11 = VECTOR ( 'NONE', #42, 1000.000000000000000 ) ;
#12 = CC_DESIGN_PERSON_AND_ORGANIZATION_ASSIGNMENT ( #166, #191, ( #156 ) ) ;
#13 = PERSON_AND_ORGANIZATION ( #98, #230 ) ;
#14 = FACE_OUTER_BOUND ( 'NONE', #140, .T. ) ;
#15 =( GEOMETRIC_REPRESENTATION_CONTEXT ( 3 ) GLOBAL_UNCERTAINTY_ASSIGNED_CONTEXT ( ( #44 ) ) GLOBAL_UNIT_ASSIGNED_CONTEXT ( ( #70, #138, #214 ) ) REPRESENTATION_CONTEXT ( 'NONE', 'WORKASPACE' ) );
#16 = VECTOR ( 'NONE', #19, 1000.000000000000000 ) ;
#17 = VECTOR ( 'NONE', #227, 1000.000000000000000 ) ;
#18 = EDGE_LOOP ( 'NONE', ( #186, #237, #129, #102 ) ) ;
#19 = DIRECTION ( 'NONE',  ( 0.0000000000000000000, 0.0000000000000000000, -1.000000000000000000 ) ) ;
#20 = CARTESIAN_POINT ( 'NONE',  ( 0.0000000000000000000, 0.0000000000000000000, 3.000000000000000000 ) ) ;
#21 = CARTESIAN_POINT ( 'NONE',  ( 25.00000000000000000, 25.00000000000000000, 3.000000000000000000 ) ) ;
#22 = LOCAL_TIME ( 10, 15, 13.00000000000000000, #132 ) ;
#23 = PERSON_AND_ORGANIZATION_ROLE ( 'creator' ) ;
#24 = DIRECTION ( 'NONE',  ( 1.000000000000000000, 0.0000000000000000000, 0.0000000000000000000 ) ) ;
#25 = DIRECTION ( 'NONE',  ( 0.0000000000000000000, 0.0000000000000000000, -1.000000000000000000 ) ) ;
#26 = COORDINATED_UNIVERSAL_TIME_OFFSET ( 5, 0, .BEHIND. ) ;
#27 = CC_DESIGN_PERSON_AND_ORGANIZATION_ASSIGNMENT ( #59, #72, ( #174 ) ) ;
#28 = DIRECTION ( 'NONE',  ( -0.0000000000000000000, 1.000000000000000000, 0.0000000000000000000 ) ) ;
#29 = LINE ( 'NONE', #228, #17 ) ;
#30 = CARTESIAN_POINT ( 'NONE',  ( 0.0000000000000000000, 0.0000000000000000000, 0.0000000000000000000 ) ) ;
#31 = FACE_OUTER_BOUND ( 'NONE', #93, .T. ) ;
#32 = SECURITY_CLASSIFICATION ( '', '', #206 ) ;
#33 = APPROVAL_STATUS ( 'not_yet_approved' ) ;
#34 = APPROVAL_DATE_TIME ( #179, #226 ) ;
#35 = VERTEX_POINT ( 'NONE', #159 ) ;
#36 = CC_DESIGN_SECURITY_CLASSIFICATION ( #32, ( #38 ) ) ;
#37 = APPROVAL_PERSON_ORGANIZATION ( #81, #46, #232 ) ;
#38 = PRODUCT_DEFINITION_FORMATION_WITH_SPECIFIED_SOURCE ( 'ANY', '', #174, .NOT_KNOWN. ) ;
#39 = ORIENTED_EDGE ( 'NONE', *, *, #212, .T. ) ;
#40 = EDGE_CURVE ( 'NONE', #35, #152, #157, .T. ) ;
#41 = CC_DESIGN_APPROVAL ( #46, ( #38 ) ) ;
#42 = DIRECTION ( 'NONE',  ( 1.000000000000000000, 0.0000000000000000000, 0.0000000000000000000 ) ) ;
#43 = CARTESIAN_POINT ( 'NONE',  ( -25.00000000000000000, 25.00000000000000000, 3.000000000000000000 ) ) ;
#44 = UNCERTAINTY_MEASURE_WITH_UNIT (LENGTH_MEASURE( 1.000000000000000082E-05 ), #70, 'distance_accuracy_value', 'NONE');
#45 = DIRECTION ( 'NONE',  ( 0.0000000000000000000, -1.000000000000000000, 0.0000000000000000000 ) ) ;
#46 = APPROVAL ( #109, 'UNSPECIFIED' ) ;
#47 = COORDINATED_UNIVERSAL_TIME_OFFSET ( 5, 0, .BEHIND. ) ;
#48 = LOCAL_TIME ( 10, 15, 13.00000000000000000, #133 ) ;
#49 = VERTEX_POINT ( 'NONE', #131 ) ;
#50 = PLANE ( 'NONE',  #147 ) ;
#51 = CARTESIAN_POINT ( 'NONE',  ( 25.00000000000000000, -25.00000000000000000, 3.000000000000000000 ) ) ;
#52 = EDGE_CURVE ( 'NONE', #162, #216, #75, .T. ) ;
#53 = DIRECTION ( 'NONE',  ( 0.0000000000000000000, 0.0000000000000000000, 1.000000000000000000 ) ) ;
#54 = VECTOR ( 'NONE', #25, 1000.000000000000000 ) ;
#55 = ORIENTED_EDGE ( 'NONE', *, *, #193, .F. ) ;
#56 = APPROVAL ( #149, 'UNSPECIFIED' ) ;
#57 = VECTOR ( 'NONE', #225, 1000.000000000000000 ) ;
#58 = PRODUCT_RELATED_PRODUCT_CATEGORY ( 'detail', '', ( #174 ) ) ;
#59 = PERSON_AND_ORGANIZATION ( #98, #230 ) ;
#60 = ADVANCED_FACE ( 'NONE', ( #14 ), #64, .F. ) ;
#61 = CARTESIAN_POINT ( 'NONE',  ( -25.00000000000000000, -25.00000000000000000, 3.000000000000000000 ) ) ;
#62 = VERTEX_POINT ( 'NONE', #43 ) ;
#63 = DATE_TIME_ROLE ( 'classification_date' ) ;
#64 = PLANE ( 'NONE',  #201 ) ;
#65 = LINE ( 'NONE', #61, #11 ) ;
#66 = DIRECTION ( 'NONE',  ( 0.0000000000000000000, -1.000000000000000000, 0.0000000000000000000 ) ) ;
#67 = CARTESIAN_POINT ( 'NONE',  ( 25.00000000000000000, -25.00000000000000000, 3.000000000000000000 ) ) ;
#68 = FACE_OUTER_BOUND ( 'NONE', #82, .T. ) ;
#69 = CC_DESIGN_DATE_AND_TIME_ASSIGNMENT ( #128, #99, ( #156 ) ) ;
#70 =( LENGTH_UNIT ( ) NAMED_UNIT ( * ) SI_UNIT ( .MILLI., .METRE. ) );
#71 = PERSON_AND_ORGANIZATION ( #98, #230 ) ;
#72 = PERSON_AND_ORGANIZATION_ROLE ( 'design_owner' ) ;
#73 = PERSON_AND_ORGANIZATION ( #98, #230 ) ;
#74 = LINE ( 'NONE', #182, #236 ) ;
#75 = LINE ( 'NONE', #209, #16 ) ;
#76 = AXIS2_PLACEMENT_3D ( 'NONE', #1, #143, #160 ) ;
#77 = FACE_OUTER_BOUND ( 'NONE', #194, .T. ) ;
#78 = ORIENTED_EDGE ( 'NONE', *, *, #193, .T. ) ;
#79 = FACE_OUTER_BOUND ( 'NONE', #150, .T. ) ;
#80 = ORIENTED_EDGE ( 'NONE', *, *, #136, .F. ) ;
#81 = PERSON_AND_ORGANIZATION ( #98, #230 ) ;
#82 = EDGE_LOOP ( 'NONE', ( #111, #203, #114, #55 ) ) ;
#83 = AXIS2_PLACEMENT_3D ( 'NONE', #30, #53, #97 ) ;
#84 = PRODUCT_DEFINITION_SHAPE ( 'NONE', 'NONE',  #156 ) ;
#85 = EDGE_CURVE ( 'NONE', #35, #162, #65, .T. ) ;
#86 = CLOSED_SHELL ( 'NONE', ( #222, #181, #60, #144, #113, #3 ) ) ;
#87 = DIRECTION ( 'NONE',  ( 0.0000000000000000000, 0.0000000000000000000, -1.000000000000000000 ) ) ;
#88 = CARTESIAN_POINT ( 'NONE',  ( -25.00000000000000000, 25.00000000000000000, 0.0000000000000000000 ) ) ;
#89 = DIRECTION ( 'NONE',  ( 1.000000000000000000, 0.0000000000000000000, 0.0000000000000000000 ) ) ;
#90 = PERSON_AND_ORGANIZATION_ROLE ( 'classification_officer' ) ;
#91 = FACE_OUTER_BOUND ( 'NONE', #18, .T. ) ;
#92 = CARTESIAN_POINT ( 'NONE',  ( -25.00000000000000000, -25.00000000000000000, 0.0000000000000000000 ) ) ;
#93 = EDGE_LOOP ( 'NONE', ( #168, #196, #220, #158 ) ) ;
#94 = CARTESIAN_POINT ( 'NONE',  ( -25.00000000000000000, -25.00000000000000000, 0.0000000000000000000 ) ) ;
#95 = LINE ( 'NONE', #51, #217 ) ;
#96 = CARTESIAN_POINT ( 'NONE',  ( 25.00000000000000000, -25.00000000000000000, 3.000000000000000000 ) ) ;
#97 = DIRECTION ( 'NONE',  ( 1.000000000000000000, 0.0000000000000000000, 0.0000000000000000000 ) ) ;
#98 = PERSON ( 'UNSPECIFIED', 'UNSPECIFIED', 'UNSPECIFIED', ('UNSPECIFIED'), ('UNSPECIFIED'), ('UNSPECIFIED') ) ;
#99 = DATE_TIME_ROLE ( 'creation_date' ) ;
#100 = EDGE_CURVE ( 'NONE', #216, #120, #235, .T. ) ;
#101 = COORDINATED_UNIVERSAL_TIME_OFFSET ( 5, 0, .BEHIND. ) ;
#102 = ORIENTED_EDGE ( 'NONE', *, *, #52, .T. ) ;
#103 = LOCAL_TIME ( 10, 15, 13.00000000000000000, #47 ) ;
#104 = DIRECTION ( 'NONE',  ( 0.0000000000000000000, 1.000000000000000000, 0.0000000000000000000 ) ) ;
#105 = APPROVAL_PERSON_ORGANIZATION ( #192, #226, #173 ) ;
#106 = ORIENTED_EDGE ( 'NONE', *, *, #197, .F. ) ;
#107 = DIRECTION ( 'NONE',  ( 0.0000000000000000000, 0.0000000000000000000, -1.000000000000000000 ) ) ;
#108 = CALENDAR_DATE ( 2019, 23, 4 ) ;
#109 = APPROVAL_STATUS ( 'not_yet_approved' ) ;
#110 = ORIENTED_EDGE ( 'NONE', *, *, #142, .T. ) ;
#111 = ORIENTED_EDGE ( 'NONE', *, *, #100, .F. ) ;
#112 = ADVANCED_BREP_SHAPE_REPRESENTATION ( 'Web Model 49586_49586', ( #134, #83 ), #15 ) ;
#113 = ADVANCED_FACE ( 'NONE', ( #31 ), #163, .F. ) ;
#114 = ORIENTED_EDGE ( 'NONE', *, *, #212, .F. ) ;
#115 = CC_DESIGN_PERSON_AND_ORGANIZATION_ASSIGNMENT ( #73, #23, ( #38 ) ) ;
#116 = CARTESIAN_POINT ( 'NONE',  ( -25.00000000000000000, -25.00000000000000000, 3.000000000000000000 ) ) ;
#117 = DATE_AND_TIME ( #219, #22 ) ;
#118 = DATE_AND_TIME ( #171, #224 ) ;
#119 = VECTOR ( 'NONE', #184, 1000.000000000000000 ) ;
#120 = VERTEX_POINT ( 'NONE', #223 ) ;
#121 = PLANE ( 'NONE',  #218 ) ;
#122 = CARTESIAN_POINT ( 'NONE',  ( -25.00000000000000000, -25.00000000000000000, 0.0000000000000000000 ) ) ;
#123 = APPLICATION_PROTOCOL_DEFINITION ( 'international standard', 'config_control_design', 1994, #231 ) ;
#124 = LINE ( 'NONE', #122, #154 ) ;
#125 = ORIENTED_EDGE ( 'NONE', *, *, #85, .F. ) ;
#126 = APPLICATION_CONTEXT ( 'configuration controlled 3d designs of mechanical parts and assemblies' ) ;
#127 = EDGE_CURVE ( 'NONE', #62, #35, #5, .T. ) ;
#128 = DATE_AND_TIME ( #234, #48 ) ;
#129 = ORIENTED_EDGE ( 'NONE', *, *, #165, .F. ) ;
#130 = APPROVAL_DATE_TIME ( #118, #46 ) ;
#131 = CARTESIAN_POINT ( 'NONE',  ( 25.00000000000000000, 25.00000000000000000, 3.000000000000000000 ) ) ;
#132 = COORDINATED_UNIVERSAL_TIME_OFFSET ( 5, 0, .BEHIND. ) ;
#133 = COORDINATED_UNIVERSAL_TIME_OFFSET ( 5, 0, .BEHIND. ) ;
#134 = MANIFOLD_SOLID_BREP ( 'NONE', #86 ) ;
#135 = CARTESIAN_POINT ( 'NONE',  ( -25.00000000000000000, -25.00000000000000000, 3.000000000000000000 ) ) ;
#136 = EDGE_CURVE ( 'NONE', #49, #62, #74, .T. ) ;
#137 = ORIENTED_EDGE ( 'NONE', *, *, #197, .T. ) ;
#138 =( NAMED_UNIT ( * ) PLANE_ANGLE_UNIT ( ) SI_UNIT ( $, .RADIAN. ) );
#139 = APPLICATION_PROTOCOL_DEFINITION ( 'international standard', 'config_control_design', 1994, #126 ) ;
#140 = EDGE_LOOP ( 'NONE', ( #39, #221, #155, #137 ) ) ;
#141 = DESIGN_CONTEXT ( 'detailed design', #126, 'design' ) ;
#142 = EDGE_CURVE ( 'NONE', #49, #120, #10, .T. ) ;
#143 = DIRECTION ( 'NONE',  ( 0.0000000000000000000, 0.0000000000000000000, -1.000000000000000000 ) ) ;
#144 = ADVANCED_FACE ( 'NONE', ( #79 ), #7, .F. ) ;
#145 = VERTEX_POINT ( 'NONE', #88 ) ;
#146 = CARTESIAN_POINT ( 'NONE',  ( -25.00000000000000000, -25.00000000000000000, 3.000000000000000000 ) ) ;
#147 = AXIS2_PLACEMENT_3D ( 'NONE', #96, #170, #189 ) ;
#148 = CARTESIAN_POINT ( 'NONE',  ( 25.00000000000000000, -25.00000000000000000, 0.0000000000000000000 ) ) ;
#149 = APPROVAL_STATUS ( 'not_yet_approved' ) ;
#150 = EDGE_LOOP ( 'NONE', ( #177, #211, #125, #208 ) ) ;
#151 = SHAPE_DEFINITION_REPRESENTATION ( #84, #112 ) ;
#152 = VERTEX_POINT ( 'NONE', #92 ) ;
#153 = EDGE_CURVE ( 'NONE', #152, #216, #215, .T. ) ;
#154 = VECTOR ( 'NONE', #66, 1000.000000000000000 ) ;
#155 = ORIENTED_EDGE ( 'NONE', *, *, #127, .F. ) ;
#156 = PRODUCT_DEFINITION ( 'UNKNOWN', '', #38, #141 ) ;
#157 = LINE ( 'NONE', #146, #119 ) ;
#158 = ORIENTED_EDGE ( 'NONE', *, *, #85, .T. ) ;
#159 = CARTESIAN_POINT ( 'NONE',  ( -25.00000000000000000, -25.00000000000000000, 3.000000000000000000 ) ) ;
#160 = DIRECTION ( 'NONE',  ( 0.0000000000000000000, -1.000000000000000000, 0.0000000000000000000 ) ) ;
#161 = LOCAL_TIME ( 10, 15, 13.00000000000000000, #101 ) ;
#162 = VERTEX_POINT ( 'NONE', #67 ) ;
#163 = PLANE ( 'NONE',  #178 ) ;
#164 = CARTESIAN_POINT ( 'NONE',  ( -25.00000000000000000, 25.00000000000000000, 3.000000000000000000 ) ) ;
#165 = EDGE_CURVE ( 'NONE', #162, #49, #95, .T. ) ;
#166 = PERSON_AND_ORGANIZATION ( #98, #230 ) ;
#167 = PERSON_AND_ORGANIZATION_ROLE ( 'design_supplier' ) ;
#168 = ORIENTED_EDGE ( 'NONE', *, *, #165, .T. ) ;
#169 = DIRECTION ( 'NONE',  ( 1.000000000000000000, 0.0000000000000000000, 0.0000000000000000000 ) ) ;
#170 = DIRECTION ( 'NONE',  ( -1.000000000000000000, 0.0000000000000000000, 0.0000000000000000000 ) ) ;
#171 = CALENDAR_DATE ( 2019, 23, 4 ) ;
#172 = MECHANICAL_CONTEXT ( 'NONE', #231, 'mechanical' ) ;
#173 = APPROVAL_ROLE ( '' ) ;
#174 = PRODUCT ( 'Web Model 49586_49586', 'Web Model 49586_49586', '', ( #172 ) ) ;
#175 = CC_DESIGN_APPROVAL ( #56, ( #32 ) ) ;
#176 = CALENDAR_DATE ( 2019, 23, 4 ) ;
#177 = ORIENTED_EDGE ( 'NONE', *, *, #153, .T. ) ;
#178 = AXIS2_PLACEMENT_3D ( 'NONE', #20, #207, #45 ) ;
#179 = DATE_AND_TIME ( #176, #161 ) ;
#180 = VECTOR ( 'NONE', #87, 1000.000000000000000 ) ;
#181 = ADVANCED_FACE ( 'NONE', ( #77 ), #121, .F. ) ;
#182 = CARTESIAN_POINT ( 'NONE',  ( -25.00000000000000000, 25.00000000000000000, 3.000000000000000000 ) ) ;
#183 = PERSON_AND_ORGANIZATION ( #98, #230 ) ;
#184 = DIRECTION ( 'NONE',  ( 0.0000000000000000000, 0.0000000000000000000, -1.000000000000000000 ) ) ;
#185 = CC_DESIGN_PERSON_AND_ORGANIZATION_ASSIGNMENT ( #183, #90, ( #32 ) ) ;
#186 = ORIENTED_EDGE ( 'NONE', *, *, #100, .T. ) ;
#187 = CARTESIAN_POINT ( 'NONE',  ( -25.00000000000000000, -25.00000000000000000, 3.000000000000000000 ) ) ;
#188 = AXIS2_PLACEMENT_3D ( 'NONE', #187, #28, #169 ) ;
#189 = DIRECTION ( 'NONE',  ( 0.0000000000000000000, 0.0000000000000000000, 1.000000000000000000 ) ) ;
#190 = CC_DESIGN_PERSON_AND_ORGANIZATION_ASSIGNMENT ( #13, #167, ( #38 ) ) ;
#191 = PERSON_AND_ORGANIZATION_ROLE ( 'creator' ) ;
#192 = PERSON_AND_ORGANIZATION ( #98, #230 ) ;
#193 = EDGE_CURVE ( 'NONE', #120, #145, #29, .T. ) ;
#194 = EDGE_LOOP ( 'NONE', ( #78, #106, #80, #110 ) ) ;
#195 = DATE_AND_TIME ( #108, #103 ) ;
#196 = ORIENTED_EDGE ( 'NONE', *, *, #136, .T. ) ;
#197 = EDGE_CURVE ( 'NONE', #62, #145, #210, .T. ) ;
#198 = CC_DESIGN_DATE_AND_TIME_ASSIGNMENT ( #117, #63, ( #32 ) ) ;
#199 = VECTOR ( 'NONE', #89, 1000.000000000000000 ) ;
#200 = VECTOR ( 'NONE', #6, 1000.000000000000000 ) ;
#201 = AXIS2_PLACEMENT_3D ( 'NONE', #135, #24, #104 ) ;
#202 = APPROVAL_PERSON_ORGANIZATION ( #71, #56, #4 ) ;
#203 = ORIENTED_EDGE ( 'NONE', *, *, #153, .F. ) ;
#204 = DIRECTION ( 'NONE',  ( -1.000000000000000000, 0.0000000000000000000, 0.0000000000000000000 ) ) ;
#205 = PLANE ( 'NONE',  #76 ) ;
#206 = SECURITY_CLASSIFICATION_LEVEL ( 'unclassified' ) ;
#207 = DIRECTION ( 'NONE',  ( 0.0000000000000000000, 0.0000000000000000000, -1.000000000000000000 ) ) ;
#208 = ORIENTED_EDGE ( 'NONE', *, *, #40, .T. ) ;
#209 = CARTESIAN_POINT ( 'NONE',  ( 25.00000000000000000, -25.00000000000000000, 3.000000000000000000 ) ) ;
#210 = LINE ( 'NONE', #164, #54 ) ;
#211 = ORIENTED_EDGE ( 'NONE', *, *, #52, .F. ) ;
#212 = EDGE_CURVE ( 'NONE', #145, #152, #124, .T. ) ;
#213 = DIRECTION ( 'NONE',  ( 0.0000000000000000000, -1.000000000000000000, 0.0000000000000000000 ) ) ;
#214 =( NAMED_UNIT ( * ) SI_UNIT ( $, .STERADIAN. ) SOLID_ANGLE_UNIT ( ) );
#215 = LINE ( 'NONE', #94, #199 ) ;
#216 = VERTEX_POINT ( 'NONE', #148 ) ;
#217 = VECTOR ( 'NONE', #229, 1000.000000000000000 ) ;
#218 = AXIS2_PLACEMENT_3D ( 'NONE', #8, #213, #107 ) ;
#219 = CALENDAR_DATE ( 2019, 23, 4 ) ;
#220 = ORIENTED_EDGE ( 'NONE', *, *, #127, .T. ) ;
#221 = ORIENTED_EDGE ( 'NONE', *, *, #40, .F. ) ;
#222 = ADVANCED_FACE ( 'NONE', ( #91 ), #50, .F. ) ;
#223 = CARTESIAN_POINT ( 'NONE',  ( 25.00000000000000000, 25.00000000000000000, 0.0000000000000000000 ) ) ;
#224 = LOCAL_TIME ( 10, 15, 13.00000000000000000, #26 ) ;
#225 = DIRECTION ( 'NONE',  ( 0.0000000000000000000, -1.000000000000000000, 0.0000000000000000000 ) ) ;
#226 = APPROVAL ( #33, 'UNSPECIFIED' ) ;
#227 = DIRECTION ( 'NONE',  ( -1.000000000000000000, 0.0000000000000000000, 0.0000000000000000000 ) ) ;
#228 = CARTESIAN_POINT ( 'NONE',  ( -25.00000000000000000, 25.00000000000000000, 0.0000000000000000000 ) ) ;
#229 = DIRECTION ( 'NONE',  ( 0.0000000000000000000, 1.000000000000000000, 0.0000000000000000000 ) ) ;
#230 = ORGANIZATION ( 'UNSPECIFIED', 'UNSPECIFIED', '' ) ;
#231 = APPLICATION_CONTEXT ( 'configuration controlled 3d designs of mechanical parts and assemblies' ) ;
#232 = APPROVAL_ROLE ( '' ) ;
#233 = APPROVAL_DATE_TIME ( #195, #56 ) ;
#234 = CALENDAR_DATE ( 2019, 23, 4 ) ;
#235 = LINE ( 'NONE', #2, #200 ) ;
#236 = VECTOR ( 'NONE', #204, 1000.000000000000000 ) ;
#237 = ORIENTED_EDGE ( 'NONE', *, *, #142, .F. ) ;
ENDSEC;
END-ISO-10303-21;
