ISO-10303-21;
HEADER;
FILE_DESCRIPTION (( 'STEP AP203' ),
    '1' );
FILE_NAME ('Web Model 19311_19311.step',
    '2021-08-24T14:27:19',
    ( '' ),
    ( '' ),
    'SwSTEP 2.0',
    'SolidWorks 2018',
    '' );
FILE_SCHEMA (( 'CONFIG_CONTROL_DESIGN' ));
ENDSEC;

DATA;
#1 = CARTESIAN_POINT ( 'NONE',  ( -104.6049999999999898, 2.149255132503602215E-16, 9.529999999999999361 ) ) ;
#2 = ADVANCED_FACE ( 'NONE', ( #379 ), #154, .F. ) ;
#3 = VECTOR ( 'NONE', #193, 1000.000000000000000 ) ;
#4 = CIRCLE ( 'NONE', #160, 1.755000000000006555 ) ;
#5 = PERSON_AND_ORGANIZATION_ROLE ( 'creator' ) ;
#6 = ORIENTED_EDGE ( 'NONE', *, *, #305, .F. ) ;
#7 = DIRECTION ( 'NONE',  ( -0.000000000000000000, -0.000000000000000000, -1.000000000000000000 ) ) ;
#8 = AXIS2_PLACEMENT_3D ( 'NONE', #292, #98, #388 ) ;
#9 = CARTESIAN_POINT ( 'NONE',  ( 108.1150000000000091, 2.149255132503602215E-16, 9.529999999999999361 ) ) ;
#10 = ORIENTED_EDGE ( 'NONE', *, *, #111, .T. ) ;
#11 = ADVANCED_FACE ( 'NONE', ( #332 ), #173, .F. ) ;
#12 = ORIENTED_EDGE ( 'NONE', *, *, #262, .T. ) ;
#13 = COORDINATED_UNIVERSAL_TIME_OFFSET ( 5, 0, .BEHIND. ) ;
#14 = PRODUCT_DEFINITION ( 'UNKNOWN', '', #364, #63 ) ;
#15 = ORIENTED_EDGE ( 'NONE', *, *, #157, .T. ) ;
#16 = PERSON_AND_ORGANIZATION ( #92, #198 ) ;
#17 = FACE_BOUND ( 'NONE', #279, .T. ) ;
#18 = VERTEX_POINT ( 'NONE', #176 ) ;
#19 = ORIENTED_EDGE ( 'NONE', *, *, #139, .F. ) ;
#20 = CIRCLE ( 'NONE', #311, 1.755000000000006555 ) ;
#21 = LOCAL_TIME ( 10, 27, 19.00000000000000000, #400 ) ;
#22 = DIRECTION ( 'NONE',  ( 1.000000000000000000, 0.000000000000000000, -0.000000000000000000 ) ) ;
#23 = AXIS2_PLACEMENT_3D ( 'NONE', #95, #34, #100 ) ;
#24 = ORIENTED_EDGE ( 'NONE', *, *, #372, .F. ) ;
#25 = DIRECTION ( 'NONE',  ( 0.000000000000000000, 0.000000000000000000, 1.000000000000000000 ) ) ;
#26 = ORIENTED_EDGE ( 'NONE', *, *, #214, .T. ) ;
#27 = FACE_OUTER_BOUND ( 'NONE', #113, .T. ) ;
#28 = PLANE ( 'NONE',  #282 ) ;
#29 = CARTESIAN_POINT ( 'NONE',  ( 0.000000000000000000, 0.000000000000000000, 9.529999999999999361 ) ) ;
#30 = EDGE_CURVE ( 'NONE', #272, #159, #73, .T. ) ;
#31 = ORIENTED_EDGE ( 'NONE', *, *, #144, .T. ) ;
#32 = EDGE_LOOP ( 'NONE', ( #130, #357, #43, #313 ) ) ;
#33 = DIRECTION ( 'NONE',  ( 1.000000000000000000, 0.000000000000000000, 0.000000000000000000 ) ) ;
#34 = DIRECTION ( 'NONE',  ( 0.000000000000000000, 0.000000000000000000, 1.000000000000000000 ) ) ;
#35 = CARTESIAN_POINT ( 'NONE',  ( -108.1150000000000091, 0.000000000000000000, 0.000000000000000000 ) ) ;
#36 = EDGE_LOOP ( 'NONE', ( #365, #362, #299, #244 ) ) ;
#37 = APPROVAL_ROLE ( '' ) ;
#38 = APPROVAL ( #40, 'UNSPECIFIED' ) ;
#39 = ORIENTED_EDGE ( 'NONE', *, *, #246, .T. ) ;
#40 = APPROVAL_STATUS ( 'not_yet_approved' ) ;
#41 = APPROVAL_ROLE ( '' ) ;
#42 = ORIENTED_EDGE ( 'NONE', *, *, #295, .F. ) ;
#43 = ORIENTED_EDGE ( 'NONE', *, *, #190, .T. ) ;
#44 =( NAMED_UNIT ( * ) PLANE_ANGLE_UNIT ( ) SI_UNIT ( $, .RADIAN. ) );
#45 = AXIS2_PLACEMENT_3D ( 'NONE', #297, #163, #206 ) ;
#46 = ADVANCED_FACE ( 'NONE', ( #180 ), #368, .F. ) ;
#47 = CIRCLE ( 'NONE', #23, 1.755000000000006555 ) ;
#48 = ORIENTED_EDGE ( 'NONE', *, *, #111, .F. ) ;
#49 = CC_DESIGN_DATE_AND_TIME_ASSIGNMENT ( #380, #106, ( #14 ) ) ;
#50 = CALENDAR_DATE ( 2021, 24, 8 ) ;
#51 = DIRECTION ( 'NONE',  ( -0.000000000000000000, -0.000000000000000000, -1.000000000000000000 ) ) ;
#52 = AXIS2_PLACEMENT_3D ( 'NONE', #29, #192, #318 ) ;
#53 = PERSON_AND_ORGANIZATION ( #92, #198 ) ;
#54 = CC_DESIGN_PERSON_AND_ORGANIZATION_ASSIGNMENT ( #294, #243, ( #364 ) ) ;
#55 = VERTEX_POINT ( 'NONE', #341 ) ;
#56 = PLANE ( 'NONE',  #407 ) ;
#57 = DIRECTION ( 'NONE',  ( 0.000000000000000000, 0.000000000000000000, 1.000000000000000000 ) ) ;
#58 = AXIS2_PLACEMENT_3D ( 'NONE', #273, #51, #277 ) ;
#59 = CARTESIAN_POINT ( 'NONE',  ( 106.3599999999999994, 0.000000000000000000, 9.529999999999999361 ) ) ;
#60 = VERTEX_POINT ( 'NONE', #307 ) ;
#61 = CIRCLE ( 'NONE', #392, 111.1250000000000000 ) ;
#62 = ORIENTED_EDGE ( 'NONE', *, *, #93, .F. ) ;
#63 = DESIGN_CONTEXT ( 'detailed design', #133, 'design' ) ;
#64 = CARTESIAN_POINT ( 'NONE',  ( 0.000000000000000000, 0.000000000000000000, 0.000000000000000000 ) ) ;
#65 = DIRECTION ( 'NONE',  ( 1.000000000000000000, 0.000000000000000000, 0.000000000000000000 ) ) ;
#66 = EDGE_LOOP ( 'NONE', ( #119, #126 ) ) ;
#67 = CARTESIAN_POINT ( 'NONE',  ( 0.000000000000000000, 0.000000000000000000, 9.529999999999999361 ) ) ;
#68 = AXIS2_PLACEMENT_3D ( 'NONE', #266, #171, #361 ) ;
#69 = DATE_AND_TIME ( #390, #110 ) ;
#70 = SECURITY_CLASSIFICATION_LEVEL ( 'unclassified' ) ;
#71 = VECTOR ( 'NONE', #285, 1000.000000000000000 ) ;
#72 = CIRCLE ( 'NONE', #335, 101.5999999999999943 ) ;
#73 = LINE ( 'NONE', #178, #248 ) ;
#74 = EDGE_CURVE ( 'NONE', #124, #18, #118, .T. ) ;
#75 = DIRECTION ( 'NONE',  ( 1.000000000000000000, 0.000000000000000000, 0.000000000000000000 ) ) ;
#76 = FACE_BOUND ( 'NONE', #301, .T. ) ;
#77 = DIRECTION ( 'NONE',  ( 0.000000000000000000, 0.000000000000000000, 1.000000000000000000 ) ) ;
#78 = PERSON_AND_ORGANIZATION ( #92, #198 ) ;
#79 = VECTOR ( 'NONE', #408, 1000.000000000000000 ) ;
#80 = EDGE_LOOP ( 'NONE', ( #31, #10 ) ) ;
#81 = DIRECTION ( 'NONE',  ( 0.000000000000000000, 0.000000000000000000, 1.000000000000000000 ) ) ;
#82 = CALENDAR_DATE ( 2021, 24, 8 ) ;
#83 = AXIS2_PLACEMENT_3D ( 'NONE', #330, #333, #75 ) ;
#84 = CARTESIAN_POINT ( 'NONE',  ( -106.3599999999999994, 0.000000000000000000, 9.529999999999999361 ) ) ;
#85 = DIRECTION ( 'NONE',  ( 0.000000000000000000, 0.000000000000000000, 1.000000000000000000 ) ) ;
#86 = CC_DESIGN_PERSON_AND_ORGANIZATION_ASSIGNMENT ( #105, #5, ( #364 ) ) ;
#87 = CIRCLE ( 'NONE', #52, 111.1250000000000000 ) ;
#88 = PRODUCT ( 'Web Model 19311_19311', 'Web Model 19311_19311', '', ( #327 ) ) ;
#89 = CARTESIAN_POINT ( 'NONE',  ( -111.1250000000000000, 0.000000000000000000, -0.002000000000000000042 ) ) ;
#90 = AXIS2_PLACEMENT_3D ( 'NONE', #342, #339, #308 ) ;
#91 = FACE_OUTER_BOUND ( 'NONE', #216, .T. ) ;
#92 = PERSON ( 'UNSPECIFIED', 'UNSPECIFIED', 'UNSPECIFIED', ('UNSPECIFIED'), ('UNSPECIFIED'), ('UNSPECIFIED') ) ;
#93 = EDGE_CURVE ( 'NONE', #352, #272, #87, .T. ) ;
#94 = CIRCLE ( 'NONE', #83, 101.5999999999999943 ) ;
#95 = CARTESIAN_POINT ( 'NONE',  ( -106.3599999999999994, 0.000000000000000000, 9.529999999999999361 ) ) ;
#96 = CARTESIAN_POINT ( 'NONE',  ( -106.3599999999999994, 0.000000000000000000, 0.000000000000000000 ) ) ;
#97 = APPROVAL_PERSON_ORGANIZATION ( #78, #38, #37 ) ;
#98 = DIRECTION ( 'NONE',  ( -0.000000000000000000, -0.000000000000000000, -1.000000000000000000 ) ) ;
#99 = ADVANCED_FACE ( 'NONE', ( #413 ), #315, .F. ) ;
#100 = DIRECTION ( 'NONE',  ( 1.000000000000000000, 0.000000000000000000, 0.000000000000000000 ) ) ;
#101 = CIRCLE ( 'NONE', #302, 1.755000000000006555 ) ;
#102 = ADVANCED_FACE ( 'NONE', ( #112 ), #359, .F. ) ;
#103 = PERSON_AND_ORGANIZATION_ROLE ( 'classification_officer' ) ;
#104 = CC_DESIGN_APPROVAL ( #38, ( #14 ) ) ;
#105 = PERSON_AND_ORGANIZATION ( #92, #198 ) ;
#106 = DATE_TIME_ROLE ( 'creation_date' ) ;
#107 = CARTESIAN_POINT ( 'NONE',  ( 0.000000000000000000, 0.000000000000000000, 0.000000000000000000 ) ) ;
#108 = APPROVAL_STATUS ( 'not_yet_approved' ) ;
#109 = ORIENTED_EDGE ( 'NONE', *, *, #267, .F. ) ;
#110 = LOCAL_TIME ( 10, 27, 19.00000000000000000, #283 ) ;
#111 = EDGE_CURVE ( 'NONE', #340, #293, #4, .T. ) ;
#112 = FACE_OUTER_BOUND ( 'NONE', #387, .T. ) ;
#113 = EDGE_LOOP ( 'NONE', ( #241, #132, #140, #375 ) ) ;
#114 = CC_DESIGN_PERSON_AND_ORGANIZATION_ASSIGNMENT ( #16, #103, ( #247 ) ) ;
#115 = ORIENTED_EDGE ( 'NONE', *, *, #214, .F. ) ;
#116 = CARTESIAN_POINT ( 'NONE',  ( -101.5999999999999943, 0.000000000000000000, 9.529999999999999361 ) ) ;
#117 = DIRECTION ( 'NONE',  ( 0.000000000000000000, 0.000000000000000000, 1.000000000000000000 ) ) ;
#118 = LINE ( 'NONE', #145, #79 ) ;
#119 = ORIENTED_EDGE ( 'NONE', *, *, #415, .T. ) ;
#120 = CARTESIAN_POINT ( 'NONE',  ( 0.000000000000000000, 0.000000000000000000, 9.529999999999999361 ) ) ;
#121 = COORDINATED_UNIVERSAL_TIME_OFFSET ( 5, 0, .BEHIND. ) ;
#122 = CC_DESIGN_PERSON_AND_ORGANIZATION_ASSIGNMENT ( #218, #263, ( #14 ) ) ;
#123 = FACE_BOUND ( 'NONE', #373, .T. ) ;
#124 = VERTEX_POINT ( 'NONE', #320 ) ;
#125 = DIRECTION ( 'NONE',  ( 1.000000000000000000, 0.000000000000000000, -0.000000000000000000 ) ) ;
#126 = ORIENTED_EDGE ( 'NONE', *, *, #290, .T. ) ;
#127 = CALENDAR_DATE ( 2021, 24, 8 ) ;
#128 = DIRECTION ( 'NONE',  ( -0.000000000000000000, -0.000000000000000000, -1.000000000000000000 ) ) ;
#129 = DIRECTION ( 'NONE',  ( 1.000000000000000000, 0.000000000000000000, -0.000000000000000000 ) ) ;
#130 = ORIENTED_EDGE ( 'NONE', *, *, #74, .F. ) ;
#131 = AXIS2_PLACEMENT_3D ( 'NONE', #310, #402, #374 ) ;
#132 = ORIENTED_EDGE ( 'NONE', *, *, #74, .T. ) ;
#133 = APPLICATION_CONTEXT ( 'configuration controlled 3d designs of mechanical parts and assemblies' ) ;
#134 = APPROVAL_PERSON_ORGANIZATION ( #371, #184, #265 ) ;
#135 = PERSON_AND_ORGANIZATION_ROLE ( 'design_owner' ) ;
#136 = CARTESIAN_POINT ( 'NONE',  ( -101.5999999999999943, 0.000000000000000000, 0.000000000000000000 ) ) ;
#137 = AXIS2_PLACEMENT_3D ( 'NONE', #84, #25, #253 ) ;
#138 = APPLICATION_PROTOCOL_DEFINITION ( 'international standard', 'config_control_design', 1994, #169 ) ;
#139 = EDGE_CURVE ( 'NONE', #159, #60, #61, .T. ) ;
#140 = ORIENTED_EDGE ( 'NONE', *, *, #415, .F. ) ;
#141 = CLOSED_SHELL ( 'NONE', ( #2, #11, #366, #298, #172, #170, #46, #242, #102, #167, #186, #205, #99 ) ) ;
#142 = UNCERTAINTY_MEASURE_WITH_UNIT (LENGTH_MEASURE( 1.000000000000000082E-05 ), #204, 'distance_accuracy_value', 'NONE');
#143 = DATE_AND_TIME ( #237, #182 ) ;
#144 = EDGE_CURVE ( 'NONE', #293, #340, #194, .T. ) ;
#145 = CARTESIAN_POINT ( 'NONE',  ( 101.5999999999999943, 1.244241147933710746E-14, 9.529999999999999361 ) ) ;
#146 = CC_DESIGN_SECURITY_CLASSIFICATION ( #247, ( #364 ) ) ;
#147 = ORIENTED_EDGE ( 'NONE', *, *, #274, .F. ) ;
#148 = LINE ( 'NONE', #326, #201 ) ;
#149 = PLANE ( 'NONE',  #211 ) ;
#150 = AXIS2_PLACEMENT_3D ( 'NONE', #188, #57, #343 ) ;
#151 = DIRECTION ( 'NONE',  ( -1.000000000000000000, 0.000000000000000000, 0.000000000000000000 ) ) ;
#152 = DIRECTION ( 'NONE',  ( 0.000000000000000000, 0.000000000000000000, 1.000000000000000000 ) ) ;
#153 = LINE ( 'NONE', #181, #71 ) ;
#154 = CYLINDRICAL_SURFACE ( 'NONE', #131, 1.755000000000006555 ) ;
#155 = VECTOR ( 'NONE', #236, 1000.000000000000000 ) ;
#156 = DIRECTION ( 'NONE',  ( 0.000000000000000000, 0.000000000000000000, 1.000000000000000000 ) ) ;
#157 = EDGE_CURVE ( 'NONE', #346, #217, #399, .T. ) ;
#158 = CARTESIAN_POINT ( 'NONE',  ( -111.1250000000000000, 0.000000000000000000, 9.529999999999999361 ) ) ;
#159 = VERTEX_POINT ( 'NONE', #89 ) ;
#160 = AXIS2_PLACEMENT_3D ( 'NONE', #284, #117, #381 ) ;
#161 = VECTOR ( 'NONE', #363, 1000.000000000000000 ) ;
#162 = DIRECTION ( 'NONE',  ( 0.000000000000000000, 0.000000000000000000, 1.000000000000000000 ) ) ;
#163 = DIRECTION ( 'NONE',  ( 0.000000000000000000, 0.000000000000000000, 1.000000000000000000 ) ) ;
#164 = CARTESIAN_POINT ( 'NONE',  ( -104.6049999999999898, 2.149255132503602215E-16, 0.000000000000000000 ) ) ;
#165 = EDGE_CURVE ( 'NONE', #55, #293, #153, .T. ) ;
#166 = ORIENTED_EDGE ( 'NONE', *, *, #240, .F. ) ;
#167 = ADVANCED_FACE ( 'NONE', ( #280 ), #28, .T. ) ;
#168 = CC_DESIGN_APPROVAL ( #347, ( #247 ) ) ;
#169 = APPLICATION_CONTEXT ( 'configuration controlled 3d designs of mechanical parts and assemblies' ) ;
#170 = ADVANCED_FACE ( 'NONE', ( #304 ), #337, .T. ) ;
#171 = DIRECTION ( 'NONE',  ( 0.000000000000000000, 0.000000000000000000, 1.000000000000000000 ) ) ;
#172 = ADVANCED_FACE ( 'NONE', ( #123, #238, #76, #17 ), #56, .T. ) ;
#173 = CYLINDRICAL_SURFACE ( 'NONE', #90, 1.755000000000006555 ) ;
#174 = APPROVAL_PERSON_ORGANIZATION ( #316, #347, #41 ) ;
#175 = FACE_OUTER_BOUND ( 'NONE', #409, .T. ) ;
#176 = CARTESIAN_POINT ( 'NONE',  ( 101.5999999999999943, 1.244241147933710746E-14, 0.000000000000000000 ) ) ;
#177 = AXIS2_PLACEMENT_3D ( 'NONE', #96, #410, #288 ) ;
#178 = CARTESIAN_POINT ( 'NONE',  ( -111.1250000000000000, 0.000000000000000000, 9.529999999999999361 ) ) ;
#179 = EDGE_CURVE ( 'NONE', #309, #286, #235, .T. ) ;
#180 = FACE_OUTER_BOUND ( 'NONE', #32, .T. ) ;
#181 = CARTESIAN_POINT ( 'NONE',  ( 104.6049999999999898, 0.000000000000000000, 9.529999999999999361 ) ) ;
#182 = LOCAL_TIME ( 10, 27, 19.00000000000000000, #226 ) ;
#183 = CARTESIAN_POINT ( 'NONE',  ( 0.000000000000000000, 0.000000000000000000, -0.002000000000000000042 ) ) ;
#184 = APPROVAL ( #108, 'UNSPECIFIED' ) ;
#185 = CARTESIAN_POINT ( 'NONE',  ( 106.3599999999999994, 0.000000000000000000, 0.000000000000000000 ) ) ;
#186 = ADVANCED_FACE ( 'NONE', ( #175 ), #149, .T. ) ;
#187 = CIRCLE ( 'NONE', #177, 1.755000000000006555 ) ;
#188 = CARTESIAN_POINT ( 'NONE',  ( -106.3599999999999994, 0.000000000000000000, 0.000000000000000000 ) ) ;
#189 = VERTEX_POINT ( 'NONE', #281 ) ;
#190 = EDGE_CURVE ( 'NONE', #189, #323, #264, .T. ) ;
#191 = LOCAL_TIME ( 10, 27, 19.00000000000000000, #13 ) ;
#192 = DIRECTION ( 'NONE',  ( 0.000000000000000000, 0.000000000000000000, 1.000000000000000000 ) ) ;
#193 = DIRECTION ( 'NONE',  ( -0.000000000000000000, -0.000000000000000000, -1.000000000000000000 ) ) ;
#194 = CIRCLE ( 'NONE', #208, 1.755000000000006555 ) ;
#195 = ORIENTED_EDGE ( 'NONE', *, *, #319, .T. ) ;
#196 = ORIENTED_EDGE ( 'NONE', *, *, #179, .F. ) ;
#197 = CARTESIAN_POINT ( 'NONE',  ( -104.6049999999999898, 2.149255132503607638E-16, 9.529999999999999361 ) ) ;
#198 = ORGANIZATION ( 'UNSPECIFIED', 'UNSPECIFIED', '' ) ;
#199 = ORIENTED_EDGE ( 'NONE', *, *, #165, .F. ) ;
#200 = CIRCLE ( 'NONE', #382, 111.1250000000000000 ) ;
#201 = VECTOR ( 'NONE', #356, 1000.000000000000000 ) ;
#202 = CARTESIAN_POINT ( 'NONE',  ( 108.1150000000000091, 2.149255132503607638E-16, 9.529999999999999361 ) ) ;
#203 = ORIENTED_EDGE ( 'NONE', *, *, #262, .F. ) ;
#204 =( LENGTH_UNIT ( ) NAMED_UNIT ( * ) SI_UNIT ( .MILLI., .METRE. ) );
#205 = ADVANCED_FACE ( 'NONE', ( #228 ), #351, .T. ) ;
#206 = DIRECTION ( 'NONE',  ( 1.000000000000000000, 0.000000000000000000, 0.000000000000000000 ) ) ;
#207 = DIRECTION ( 'NONE',  ( 0.000000000000000000, 0.000000000000000000, 1.000000000000000000 ) ) ;
#208 = AXIS2_PLACEMENT_3D ( 'NONE', #185, #405, #222 ) ;
#209 = ORIENTED_EDGE ( 'NONE', *, *, #30, .F. ) ;
#210 = DIRECTION ( 'NONE',  ( 1.000000000000000000, 0.000000000000000000, 0.000000000000000000 ) ) ;
#211 = AXIS2_PLACEMENT_3D ( 'NONE', #227, #411, #125 ) ;
#212 = ORIENTED_EDGE ( 'NONE', *, *, #267, .T. ) ;
#213 = LOCAL_TIME ( 10, 27, 19.00000000000000000, #121 ) ;
#214 = EDGE_CURVE ( 'NONE', #352, #60, #249, .T. ) ;
#215 = DIRECTION ( 'NONE',  ( -0.000000000000000000, -0.000000000000000000, -1.000000000000000000 ) ) ;
#216 = EDGE_LOOP ( 'NONE', ( #62, #26, #195, #209 ) ) ;
#217 = VERTEX_POINT ( 'NONE', #35 ) ;
#218 = PERSON_AND_ORGANIZATION ( #92, #198 ) ;
#219 = EDGE_LOOP ( 'NONE', ( #115, #203, #269, #296 ) ) ;
#220 = CARTESIAN_POINT ( 'NONE',  ( 0.000000000000000000, 0.000000000000000000, -0.002000000000000000042 ) ) ;
#221 = CYLINDRICAL_SURFACE ( 'NONE', #355, 101.5999999999999943 ) ;
#222 = DIRECTION ( 'NONE',  ( 1.000000000000000000, 0.000000000000000000, 0.000000000000000000 ) ) ;
#223 = AXIS2_PLACEMENT_3D ( 'NONE', #322, #156, #414 ) ;
#224 = ORIENTED_EDGE ( 'NONE', *, *, #144, .F. ) ;
#225 = DIRECTION ( 'NONE',  ( -0.000000000000000000, -0.000000000000000000, -1.000000000000000000 ) ) ;
#226 = COORDINATED_UNIVERSAL_TIME_OFFSET ( 5, 0, .BEHIND. ) ;
#227 = CARTESIAN_POINT ( 'NONE',  ( 0.000000000000000000, 0.000000000000000000, 0.000000000000000000 ) ) ;
#228 = FACE_OUTER_BOUND ( 'NONE', #66, .T. ) ;
#229 = EDGE_CURVE ( 'NONE', #286, #309, #47, .T. ) ;
#230 = CARTESIAN_POINT ( 'NONE',  ( 111.1250000000000000, 1.360888755552496385E-14, 9.529999999999999361 ) ) ;
#231 = DIRECTION ( 'NONE',  ( -0.000000000000000000, -0.000000000000000000, -1.000000000000000000 ) ) ;
#232 = ORIENTED_EDGE ( 'NONE', *, *, #179, .T. ) ;
#233 = AXIS2_PLACEMENT_3D ( 'NONE', #258, #231, #353 ) ;
#234 = CYLINDRICAL_SURFACE ( 'NONE', #233, 111.1250000000000000 ) ;
#235 = CIRCLE ( 'NONE', #137, 1.755000000000006555 ) ;
#236 = DIRECTION ( 'NONE',  ( -0.000000000000000000, -0.000000000000000000, -1.000000000000000000 ) ) ;
#237 = CALENDAR_DATE ( 2021, 24, 8 ) ;
#238 = FACE_OUTER_BOUND ( 'NONE', #396, .T. ) ;
#239 = DIRECTION ( 'NONE',  ( -1.000000000000000000, 0.000000000000000000, 0.000000000000000000 ) ) ;
#240 = EDGE_CURVE ( 'NONE', #217, #346, #187, .T. ) ;
#241 = ORIENTED_EDGE ( 'NONE', *, *, #305, .T. ) ;
#242 = ADVANCED_FACE ( 'NONE', ( #314 ), #250, .F. ) ;
#243 = PERSON_AND_ORGANIZATION_ROLE ( 'design_supplier' ) ;
#244 = ORIENTED_EDGE ( 'NONE', *, *, #157, .F. ) ;
#245 = APPROVAL_DATE_TIME ( #69, #38 ) ;
#246 = EDGE_CURVE ( 'NONE', #286, #346, #378, .T. ) ;
#247 = SECURITY_CLASSIFICATION ( '', '', #70 ) ;
#248 = VECTOR ( 'NONE', #215, 1000.000000000000000 ) ;
#249 = LINE ( 'NONE', #230, #155 ) ;
#250 = CYLINDRICAL_SURFACE ( 'NONE', #8, 1.755000000000006555 ) ;
#251 = AXIS2_PLACEMENT_3D ( 'NONE', #120, #225, #254 ) ;
#252 = SHAPE_DEFINITION_REPRESENTATION ( #338, #325 ) ;
#253 = DIRECTION ( 'NONE',  ( 1.000000000000000000, 0.000000000000000000, 0.000000000000000000 ) ) ;
#254 = DIRECTION ( 'NONE',  ( -1.000000000000000000, 0.000000000000000000, 0.000000000000000000 ) ) ;
#255 = DIRECTION ( 'NONE',  ( 1.000000000000000000, 0.000000000000000000, -0.000000000000000000 ) ) ;
#256 = AXIS2_PLACEMENT_3D ( 'NONE', #59, #257, #151 ) ;
#257 = DIRECTION ( 'NONE',  ( -0.000000000000000000, -0.000000000000000000, -1.000000000000000000 ) ) ;
#258 = CARTESIAN_POINT ( 'NONE',  ( 0.000000000000000000, 0.000000000000000000, 9.529999999999999361 ) ) ;
#259 = DIRECTION ( 'NONE',  ( 0.000000000000000000, 0.000000000000000000, 1.000000000000000000 ) ) ;
#260 = EDGE_LOOP ( 'NONE', ( #232, #39, #166, #147 ) ) ;
#261 = APPROVAL_DATE_TIME ( #143, #347 ) ;
#262 = EDGE_CURVE ( 'NONE', #272, #352, #200, .T. ) ;
#263 = PERSON_AND_ORGANIZATION_ROLE ( 'creator' ) ;
#264 = LINE ( 'NONE', #116, #3 ) ;
#265 = APPROVAL_ROLE ( '' ) ;
#266 = CARTESIAN_POINT ( 'NONE',  ( 0.000000000000000000, 0.000000000000000000, 9.529999999999999361 ) ) ;
#267 = EDGE_CURVE ( 'NONE', #367, #55, #20, .T. ) ;
#268 = DATE_AND_TIME ( #82, #191 ) ;
#269 = ORIENTED_EDGE ( 'NONE', *, *, #30, .T. ) ;
#270 = VECTOR ( 'NONE', #128, 1000.000000000000000 ) ;
#271 = AXIS2_PLACEMENT_3D ( 'NONE', #183, #85, #255 ) ;
#272 = VERTEX_POINT ( 'NONE', #158 ) ;
#273 = CARTESIAN_POINT ( 'NONE',  ( 0.000000000000000000, 0.000000000000000000, 9.529999999999999361 ) ) ;
#274 = EDGE_CURVE ( 'NONE', #309, #217, #148, .T. ) ;
#275 = ORIENTED_EDGE ( 'NONE', *, *, #165, .T. ) ;
#276 = ORIENTED_EDGE ( 'NONE', *, *, #393, .F. ) ;
#277 = DIRECTION ( 'NONE',  ( -1.000000000000000000, 0.000000000000000000, 0.000000000000000000 ) ) ;
#278 = CARTESIAN_POINT ( 'NONE',  ( 0.000000000000000000, 0.000000000000000000, 9.529999999999999361 ) ) ;
#279 = EDGE_LOOP ( 'NONE', ( #42, #109 ) ) ;
#280 = FACE_OUTER_BOUND ( 'NONE', #80, .T. ) ;
#281 = CARTESIAN_POINT ( 'NONE',  ( -101.5999999999999943, 0.000000000000000000, 9.529999999999999361 ) ) ;
#282 = AXIS2_PLACEMENT_3D ( 'NONE', #345, #406, #22 ) ;
#283 = COORDINATED_UNIVERSAL_TIME_OFFSET ( 5, 0, .BEHIND. ) ;
#284 = CARTESIAN_POINT ( 'NONE',  ( 106.3599999999999994, 0.000000000000000000, 0.000000000000000000 ) ) ;
#285 = DIRECTION ( 'NONE',  ( -0.000000000000000000, -0.000000000000000000, -1.000000000000000000 ) ) ;
#286 = VERTEX_POINT ( 'NONE', #1 ) ;
#287 = CARTESIAN_POINT ( 'NONE',  ( 104.6049999999999898, 0.000000000000000000, 0.000000000000000000 ) ) ;
#288 = DIRECTION ( 'NONE',  ( 1.000000000000000000, 0.000000000000000000, 0.000000000000000000 ) ) ;
#289 = CARTESIAN_POINT ( 'NONE',  ( 111.1250000000000000, 1.360888755552496385E-14, 9.529999999999999361 ) ) ;
#290 = EDGE_CURVE ( 'NONE', #18, #323, #370, .T. ) ;
#291 = DIRECTION ( 'NONE',  ( 0.000000000000000000, 0.000000000000000000, 1.000000000000000000 ) ) ;
#292 = CARTESIAN_POINT ( 'NONE',  ( -106.3599999999999994, 0.000000000000000000, 9.529999999999999361 ) ) ;
#293 = VERTEX_POINT ( 'NONE', #287 ) ;
#294 = PERSON_AND_ORGANIZATION ( #92, #198 ) ;
#295 = EDGE_CURVE ( 'NONE', #55, #367, #101, .T. ) ;
#296 = ORIENTED_EDGE ( 'NONE', *, *, #139, .T. ) ;
#297 = CARTESIAN_POINT ( 'NONE',  ( 0.000000000000000000, 0.000000000000000000, -0.002000000000000000042 ) ) ;
#298 = ADVANCED_FACE ( 'NONE', ( #91 ), #234, .T. ) ;
#299 = ORIENTED_EDGE ( 'NONE', *, *, #274, .T. ) ;
#300 = CARTESIAN_POINT ( 'NONE',  ( 0.000000000000000000, 0.000000000000000000, 9.529999999999999361 ) ) ;
#301 = EDGE_LOOP ( 'NONE', ( #6, #24 ) ) ;
#302 = AXIS2_PLACEMENT_3D ( 'NONE', #383, #321, #33 ) ;
#303 = EDGE_LOOP ( 'NONE', ( #19, #384 ) ) ;
#304 = FACE_OUTER_BOUND ( 'NONE', #219, .T. ) ;
#305 = EDGE_CURVE ( 'NONE', #189, #124, #72, .T. ) ;
#306 = ORIENTED_EDGE ( 'NONE', *, *, #240, .T. ) ;
#307 = CARTESIAN_POINT ( 'NONE',  ( 111.1250000000000000, 1.360888755552496385E-14, -0.002000000000000000042 ) ) ;
#308 = DIRECTION ( 'NONE',  ( -1.000000000000000000, 0.000000000000000000, 0.000000000000000000 ) ) ;
#309 = VERTEX_POINT ( 'NONE', #386 ) ;
#310 = CARTESIAN_POINT ( 'NONE',  ( 106.3599999999999994, 0.000000000000000000, 9.529999999999999361 ) ) ;
#311 = AXIS2_PLACEMENT_3D ( 'NONE', #350, #291, #65 ) ;
#312 = DIRECTION ( 'NONE',  ( 1.000000000000000000, 0.000000000000000000, -0.000000000000000000 ) ) ;
#313 = ORIENTED_EDGE ( 'NONE', *, *, #290, .F. ) ;
#314 = FACE_OUTER_BOUND ( 'NONE', #36, .T. ) ;
#315 = PLANE ( 'NONE',  #271 ) ;
#316 = PERSON_AND_ORGANIZATION ( #92, #198 ) ;
#317 = EDGE_LOOP ( 'NONE', ( #389, #360, #224, #199 ) ) ;
#318 = DIRECTION ( 'NONE',  ( 1.000000000000000000, 0.000000000000000000, 0.000000000000000000 ) ) ;
#319 = EDGE_CURVE ( 'NONE', #60, #159, #349, .T. ) ;
#320 = CARTESIAN_POINT ( 'NONE',  ( 101.5999999999999943, 1.244241147933710746E-14, 9.529999999999999361 ) ) ;
#321 = DIRECTION ( 'NONE',  ( 0.000000000000000000, 0.000000000000000000, 1.000000000000000000 ) ) ;
#322 = CARTESIAN_POINT ( 'NONE',  ( 0.000000000000000000, 0.000000000000000000, 0.000000000000000000 ) ) ;
#323 = VERTEX_POINT ( 'NONE', #136 ) ;
#324 = DIRECTION ( 'NONE',  ( 1.000000000000000000, 0.000000000000000000, 0.000000000000000000 ) ) ;
#325 = ADVANCED_BREP_SHAPE_REPRESENTATION ( 'Web Model 19311_19311', ( #336, #328 ), #401 ) ;
#326 = CARTESIAN_POINT ( 'NONE',  ( -108.1150000000000091, 0.000000000000000000, 9.529999999999999361 ) ) ;
#327 = MECHANICAL_CONTEXT ( 'NONE', #169, 'mechanical' ) ;
#328 = AXIS2_PLACEMENT_3D ( 'NONE', #107, #77, #394 ) ;
#329 = CC_DESIGN_APPROVAL ( #184, ( #364 ) ) ;
#330 = CARTESIAN_POINT ( 'NONE',  ( 0.000000000000000000, 0.000000000000000000, 0.000000000000000000 ) ) ;
#331 = CIRCLE ( 'NONE', #68, 101.5999999999999943 ) ;
#332 = FACE_OUTER_BOUND ( 'NONE', #260, .T. ) ;
#333 = DIRECTION ( 'NONE',  ( 0.000000000000000000, 0.000000000000000000, 1.000000000000000000 ) ) ;
#334 = DATE_TIME_ROLE ( 'classification_date' ) ;
#335 = AXIS2_PLACEMENT_3D ( 'NONE', #398, #207, #210 ) ;
#336 = MANIFOLD_SOLID_BREP ( 'Boss-Extrude2', #141 ) ;
#337 = CYLINDRICAL_SURFACE ( 'NONE', #251, 111.1250000000000000 ) ;
#338 = PRODUCT_DEFINITION_SHAPE ( 'NONE', 'NONE',  #14 ) ;
#339 = DIRECTION ( 'NONE',  ( -0.000000000000000000, -0.000000000000000000, -1.000000000000000000 ) ) ;
#340 = VERTEX_POINT ( 'NONE', #358 ) ;
#341 = CARTESIAN_POINT ( 'NONE',  ( 104.6049999999999898, 0.000000000000000000, 9.529999999999999361 ) ) ;
#342 = CARTESIAN_POINT ( 'NONE',  ( -106.3599999999999994, 0.000000000000000000, 9.529999999999999361 ) ) ;
#343 = DIRECTION ( 'NONE',  ( 1.000000000000000000, 0.000000000000000000, 0.000000000000000000 ) ) ;
#344 = AXIS2_PLACEMENT_3D ( 'NONE', #64, #259, #129 ) ;
#345 = CARTESIAN_POINT ( 'NONE',  ( 0.000000000000000000, 0.000000000000000000, 0.000000000000000000 ) ) ;
#346 = VERTEX_POINT ( 'NONE', #164 ) ;
#347 = APPROVAL ( #397, 'UNSPECIFIED' ) ;
#348 = DATE_AND_TIME ( #127, #213 ) ;
#349 = CIRCLE ( 'NONE', #45, 111.1250000000000000 ) ;
#350 = CARTESIAN_POINT ( 'NONE',  ( 106.3599999999999994, 0.000000000000000000, 9.529999999999999361 ) ) ;
#351 = PLANE ( 'NONE',  #344 ) ;
#352 = VERTEX_POINT ( 'NONE', #289 ) ;
#353 = DIRECTION ( 'NONE',  ( -1.000000000000000000, 0.000000000000000000, 0.000000000000000000 ) ) ;
#354 = APPROVAL_DATE_TIME ( #268, #184 ) ;
#355 = AXIS2_PLACEMENT_3D ( 'NONE', #300, #7, #239 ) ;
#356 = DIRECTION ( 'NONE',  ( -0.000000000000000000, -0.000000000000000000, -1.000000000000000000 ) ) ;
#357 = ORIENTED_EDGE ( 'NONE', *, *, #372, .T. ) ;
#358 = CARTESIAN_POINT ( 'NONE',  ( 108.1150000000000091, 2.149255132503602215E-16, 0.000000000000000000 ) ) ;
#359 = CYLINDRICAL_SURFACE ( 'NONE', #256, 1.755000000000006555 ) ;
#360 = ORIENTED_EDGE ( 'NONE', *, *, #393, .T. ) ;
#361 = DIRECTION ( 'NONE',  ( 1.000000000000000000, 0.000000000000000000, 0.000000000000000000 ) ) ;
#362 = ORIENTED_EDGE ( 'NONE', *, *, #229, .T. ) ;
#363 = DIRECTION ( 'NONE',  ( -0.000000000000000000, -0.000000000000000000, -1.000000000000000000 ) ) ;
#364 = PRODUCT_DEFINITION_FORMATION_WITH_SPECIFIED_SOURCE ( 'ANY', '', #88, .NOT_KNOWN. ) ;
#365 = ORIENTED_EDGE ( 'NONE', *, *, #246, .F. ) ;
#366 = ADVANCED_FACE ( 'NONE', ( #27 ), #221, .F. ) ;
#367 = VERTEX_POINT ( 'NONE', #9 ) ;
#368 = CYLINDRICAL_SURFACE ( 'NONE', #58, 101.5999999999999943 ) ;
#369 = CC_DESIGN_PERSON_AND_ORGANIZATION_ASSIGNMENT ( #53, #135, ( #88 ) ) ;
#370 = CIRCLE ( 'NONE', #223, 101.5999999999999943 ) ;
#371 = PERSON_AND_ORGANIZATION ( #92, #198 ) ;
#372 = EDGE_CURVE ( 'NONE', #124, #189, #331, .T. ) ;
#373 = EDGE_LOOP ( 'NONE', ( #196, #404 ) ) ;
#374 = DIRECTION ( 'NONE',  ( -1.000000000000000000, 0.000000000000000000, 0.000000000000000000 ) ) ;
#375 = ORIENTED_EDGE ( 'NONE', *, *, #190, .F. ) ;
#376 = ORIENTED_EDGE ( 'NONE', *, *, #93, .T. ) ;
#377 = DIRECTION ( 'NONE',  ( 1.000000000000000000, 0.000000000000000000, 0.000000000000000000 ) ) ;
#378 = LINE ( 'NONE', #197, #270 ) ;
#379 = FACE_OUTER_BOUND ( 'NONE', #317, .T. ) ;
#380 = DATE_AND_TIME ( #50, #21 ) ;
#381 = DIRECTION ( 'NONE',  ( 1.000000000000000000, 0.000000000000000000, 0.000000000000000000 ) ) ;
#382 = AXIS2_PLACEMENT_3D ( 'NONE', #67, #162, #324 ) ;
#383 = CARTESIAN_POINT ( 'NONE',  ( 106.3599999999999994, 0.000000000000000000, 9.529999999999999361 ) ) ;
#384 = ORIENTED_EDGE ( 'NONE', *, *, #319, .F. ) ;
#385 = CC_DESIGN_DATE_AND_TIME_ASSIGNMENT ( #348, #334, ( #247 ) ) ;
#386 = CARTESIAN_POINT ( 'NONE',  ( -108.1150000000000091, 0.000000000000000000, 9.529999999999999361 ) ) ;
#387 = EDGE_LOOP ( 'NONE', ( #276, #212, #275, #48 ) ) ;
#388 = DIRECTION ( 'NONE',  ( -1.000000000000000000, 0.000000000000000000, 0.000000000000000000 ) ) ;
#389 = ORIENTED_EDGE ( 'NONE', *, *, #295, .T. ) ;
#390 = CALENDAR_DATE ( 2021, 24, 8 ) ;
#391 = APPLICATION_PROTOCOL_DEFINITION ( 'international standard', 'config_control_design', 1994, #133 ) ;
#392 = AXIS2_PLACEMENT_3D ( 'NONE', #220, #152, #377 ) ;
#393 = EDGE_CURVE ( 'NONE', #367, #340, #412, .T. ) ;
#394 = DIRECTION ( 'NONE',  ( 1.000000000000000000, 0.000000000000000000, 0.000000000000000000 ) ) ;
#395 =( NAMED_UNIT ( * ) SI_UNIT ( $, .STERADIAN. ) SOLID_ANGLE_UNIT ( ) );
#396 = EDGE_LOOP ( 'NONE', ( #12, #376 ) ) ;
#397 = APPROVAL_STATUS ( 'not_yet_approved' ) ;
#398 = CARTESIAN_POINT ( 'NONE',  ( 0.000000000000000000, 0.000000000000000000, 9.529999999999999361 ) ) ;
#399 = CIRCLE ( 'NONE', #150, 1.755000000000006555 ) ;
#400 = COORDINATED_UNIVERSAL_TIME_OFFSET ( 5, 0, .BEHIND. ) ;
#401 =( GEOMETRIC_REPRESENTATION_CONTEXT ( 3 ) GLOBAL_UNCERTAINTY_ASSIGNED_CONTEXT ( ( #142 ) ) GLOBAL_UNIT_ASSIGNED_CONTEXT ( ( #204, #44, #395 ) ) REPRESENTATION_CONTEXT ( 'NONE', 'WORKASPACE' ) );
#402 = DIRECTION ( 'NONE',  ( -0.000000000000000000, -0.000000000000000000, -1.000000000000000000 ) ) ;
#403 = PRODUCT_RELATED_PRODUCT_CATEGORY ( 'detail', '', ( #88 ) ) ;
#404 = ORIENTED_EDGE ( 'NONE', *, *, #229, .F. ) ;
#405 = DIRECTION ( 'NONE',  ( 0.000000000000000000, 0.000000000000000000, 1.000000000000000000 ) ) ;
#406 = DIRECTION ( 'NONE',  ( 0.000000000000000000, 0.000000000000000000, 1.000000000000000000 ) ) ;
#407 = AXIS2_PLACEMENT_3D ( 'NONE', #278, #81, #312 ) ;
#408 = DIRECTION ( 'NONE',  ( -0.000000000000000000, -0.000000000000000000, -1.000000000000000000 ) ) ;
#409 = EDGE_LOOP ( 'NONE', ( #306, #15 ) ) ;
#410 = DIRECTION ( 'NONE',  ( 0.000000000000000000, 0.000000000000000000, 1.000000000000000000 ) ) ;
#411 = DIRECTION ( 'NONE',  ( 0.000000000000000000, 0.000000000000000000, 1.000000000000000000 ) ) ;
#412 = LINE ( 'NONE', #202, #161 ) ;
#413 = FACE_OUTER_BOUND ( 'NONE', #303, .T. ) ;
#414 = DIRECTION ( 'NONE',  ( 1.000000000000000000, 0.000000000000000000, 0.000000000000000000 ) ) ;
#415 = EDGE_CURVE ( 'NONE', #323, #18, #94, .T. ) ;
ENDSEC;
END-ISO-10303-21;
