ISO-10303-21;
HEADER;
FILE_DESCRIPTION (( 'STEP AP203' ),
    '1' );
FILE_NAME ('Web Model 47230_36986.step',
    '2019-01-07T15:30:55',
    ( '' ),
    ( '' ),
    'SwSTEP 2.0',
    'SolidWorks 2016',
    '' );
FILE_SCHEMA (( 'CONFIG_CONTROL_DESIGN' ));
ENDSEC;

DATA;
#1 = PERSON_AND_ORGANIZATION ( #96, #146 ) ;
#2 = ADVANCED_BREP_SHAPE_REPRESENTATION ( 'Web Model 47230_36986', ( #35, #87 ), #85 ) ;
#3 = PRODUCT_DEFINITION ( 'UNKNOWN', '', #57, #92 ) ;
#4 = ORIENTED_EDGE ( 'NONE', *, *, #117, .F. ) ;
#5 = VERTEX_POINT ( 'NONE', #115 ) ;
#6 = PERSON_AND_ORGANIZATION ( #96, #146 ) ;
#7 = ADVANCED_FACE ( 'NONE', ( #98 ), #112, .T. ) ;
#8 = APPROVAL_STATUS ( 'not_yet_approved' ) ;
#9 = APPROVAL_ROLE ( '' ) ;
#10 = PLANE ( 'NONE',  #78 ) ;
#11 = ORIENTED_EDGE ( 'NONE', *, *, #27, .T. ) ;
#12 = PERSON_AND_ORGANIZATION_ROLE ( 'creator' ) ;
#13 = CC_DESIGN_PERSON_AND_ORGANIZATION_ASSIGNMENT ( #154, #148, ( #3 ) ) ;
#14 = EDGE_LOOP ( 'NONE', ( #140, #125 ) ) ;
#15 = CIRCLE ( 'NONE', #127, 25.00000000000000000 ) ;
#16 = ORIENTED_EDGE ( 'NONE', *, *, #132, .F. ) ;
#17 = APPROVAL ( #65, 'UNSPECIFIED' ) ;
#18 = APPROVAL_PERSON_ORGANIZATION ( #6, #32, #38 ) ;
#19 = CARTESIAN_POINT ( 'NONE',  ( -25.00000000000000000, 0.0000000000000000000, 2.000000000000000000 ) ) ;
#20 = DIRECTION ( 'NONE',  ( 1.000000000000000000, 0.0000000000000000000, -0.0000000000000000000 ) ) ;
#21 = CARTESIAN_POINT ( 'NONE',  ( -25.00000000000000000, 0.0000000000000000000, -2.000000000000000000 ) ) ;
#22 = MECHANICAL_CONTEXT ( 'NONE', #54, 'mechanical' ) ;
#23 = DATE_AND_TIME ( #173, #76 ) ;
#24 = DIRECTION ( 'NONE',  ( 0.0000000000000000000, 0.0000000000000000000, 1.000000000000000000 ) ) ;
#25 = AXIS2_PLACEMENT_3D ( 'NONE', #63, #145, #40 ) ;
#26 = CALENDAR_DATE ( 2019, 7, 1 ) ;
#27 = EDGE_CURVE ( 'NONE', #172, #5, #152, .T. ) ;
#28 = ORIENTED_EDGE ( 'NONE', *, *, #60, .F. ) ;
#29 = PERSON_AND_ORGANIZATION ( #96, #146 ) ;
#30 = CIRCLE ( 'NONE', #111, 25.00000000000000000 ) ;
#31 = LOCAL_TIME ( 10, 30, 55.00000000000000000, #99 ) ;
#32 = APPROVAL ( #8, 'UNSPECIFIED' ) ;
#33 = CLOSED_SHELL ( 'NONE', ( #7, #88, #61, #46 ) ) ;
#34 = CALENDAR_DATE ( 2019, 7, 1 ) ;
#35 = MANIFOLD_SOLID_BREP ( 'Boss-Extrude1', #33 ) ;
#36 = APPROVAL_STATUS ( 'not_yet_approved' ) ;
#37 = ORIENTED_EDGE ( 'NONE', *, *, #132, .T. ) ;
#38 = APPROVAL_ROLE ( '' ) ;
#39 = DIRECTION ( 'NONE',  ( 0.0000000000000000000, 0.0000000000000000000, 1.000000000000000000 ) ) ;
#40 = DIRECTION ( 'NONE',  ( -1.000000000000000000, 0.0000000000000000000, 0.0000000000000000000 ) ) ;
#41 = FACE_OUTER_BOUND ( 'NONE', #110, .T. ) ;
#42 = COORDINATED_UNIVERSAL_TIME_OFFSET ( 5, 0, .BEHIND. ) ;
#43 = CC_DESIGN_PERSON_AND_ORGANIZATION_ASSIGNMENT ( #59, #94, ( #57 ) ) ;
#44 = PERSON_AND_ORGANIZATION ( #96, #146 ) ;
#45 = PRODUCT ( 'Web Model 47230_36986', 'Web Model 47230_36986', '', ( #22 ) ) ;
#46 = ADVANCED_FACE ( 'NONE', ( #67 ), #74, .F. ) ;
#47 = DIRECTION ( 'NONE',  ( -0.0000000000000000000, -0.0000000000000000000, -1.000000000000000000 ) ) ;
#48 = VERTEX_POINT ( 'NONE', #19 ) ;
#49 = APPROVAL_PERSON_ORGANIZATION ( #68, #17, #174 ) ;
#50 = CARTESIAN_POINT ( 'NONE',  ( 0.0000000000000000000, 0.0000000000000000000, -2.000000000000000000 ) ) ;
#51 = DIRECTION ( 'NONE',  ( 1.000000000000000000, 0.0000000000000000000, 0.0000000000000000000 ) ) ;
#52 = PRODUCT_RELATED_PRODUCT_CATEGORY ( 'detail', '', ( #45 ) ) ;
#53 = CARTESIAN_POINT ( 'NONE',  ( 0.0000000000000000000, 0.0000000000000000000, 2.000000000000000000 ) ) ;
#54 = APPLICATION_CONTEXT ( 'configuration controlled 3d designs of mechanical parts and assemblies' ) ;
#55 = ORIENTED_EDGE ( 'NONE', *, *, #117, .T. ) ;
#56 = DIRECTION ( 'NONE',  ( 1.000000000000000000, 0.0000000000000000000, 0.0000000000000000000 ) ) ;
#57 = PRODUCT_DEFINITION_FORMATION_WITH_SPECIFIED_SOURCE ( 'ANY', '', #45, .NOT_KNOWN. ) ;
#58 = CIRCLE ( 'NONE', #142, 25.00000000000000000 ) ;
#59 = PERSON_AND_ORGANIZATION ( #96, #146 ) ;
#60 = EDGE_CURVE ( 'NONE', #48, #134, #82, .T. ) ;
#61 = ADVANCED_FACE ( 'NONE', ( #143 ), #10, .T. ) ;
#62 = CARTESIAN_POINT ( 'NONE',  ( 0.0000000000000000000, 0.0000000000000000000, -2.000000000000000000 ) ) ;
#63 = CARTESIAN_POINT ( 'NONE',  ( 0.0000000000000000000, 0.0000000000000000000, 2.000000000000000000 ) ) ;
#64 = DIRECTION ( 'NONE',  ( 0.0000000000000000000, 0.0000000000000000000, 1.000000000000000000 ) ) ;
#65 = APPROVAL_STATUS ( 'not_yet_approved' ) ;
#66 = APPLICATION_PROTOCOL_DEFINITION ( 'international standard', 'config_control_design', 1994, #135 ) ;
#67 = FACE_OUTER_BOUND ( 'NONE', #14, .T. ) ;
#68 = PERSON_AND_ORGANIZATION ( #96, #146 ) ;
#69 = CYLINDRICAL_SURFACE ( 'NONE', #25, 25.00000000000000000 ) ;
#70 = SECURITY_CLASSIFICATION ( '', '', #131 ) ;
#71 = LOCAL_TIME ( 10, 30, 55.00000000000000000, #129 ) ;
#72 = AXIS2_PLACEMENT_3D ( 'NONE', #73, #130, #156 ) ;
#73 = CARTESIAN_POINT ( 'NONE',  ( 0.0000000000000000000, 0.0000000000000000000, 2.000000000000000000 ) ) ;
#74 = PLANE ( 'NONE',  #155 ) ;
#75 = CARTESIAN_POINT ( 'NONE',  ( 25.00000000000000000, 3.061616997868383000E-015, 2.000000000000000000 ) ) ;
#76 = LOCAL_TIME ( 10, 30, 55.00000000000000000, #113 ) ;
#77 = CARTESIAN_POINT ( 'NONE',  ( 0.0000000000000000000, 0.0000000000000000000, -2.000000000000000000 ) ) ;
#78 = AXIS2_PLACEMENT_3D ( 'NONE', #53, #81, #159 ) ;
#79 = COORDINATED_UNIVERSAL_TIME_OFFSET ( 5, 0, .BEHIND. ) ;
#80 = DIRECTION ( 'NONE',  ( 1.000000000000000000, 0.0000000000000000000, 0.0000000000000000000 ) ) ;
#81 = DIRECTION ( 'NONE',  ( 0.0000000000000000000, 0.0000000000000000000, 1.000000000000000000 ) ) ;
#82 = LINE ( 'NONE', #118, #175 ) ;
#83 = DIRECTION ( 'NONE',  ( 1.000000000000000000, 0.0000000000000000000, 0.0000000000000000000 ) ) ;
#84 = DATE_AND_TIME ( #26, #116 ) ;
#85 =( GEOMETRIC_REPRESENTATION_CONTEXT ( 3 ) GLOBAL_UNCERTAINTY_ASSIGNED_CONTEXT ( ( #163 ) ) GLOBAL_UNIT_ASSIGNED_CONTEXT ( ( #171, #91, #101 ) ) REPRESENTATION_CONTEXT ( 'NONE', 'WORKASPACE' ) );
#86 = CALENDAR_DATE ( 2019, 7, 1 ) ;
#87 = AXIS2_PLACEMENT_3D ( 'NONE', #133, #39, #51 ) ;
#88 = ADVANCED_FACE ( 'NONE', ( #41 ), #69, .T. ) ;
#89 = DIRECTION ( 'NONE',  ( -0.0000000000000000000, -0.0000000000000000000, -1.000000000000000000 ) ) ;
#90 = CC_DESIGN_PERSON_AND_ORGANIZATION_ASSIGNMENT ( #29, #120, ( #45 ) ) ;
#91 =( NAMED_UNIT ( * ) PLANE_ANGLE_UNIT ( ) SI_UNIT ( $, .RADIAN. ) );
#92 = DESIGN_CONTEXT ( 'detailed design', #135, 'design' ) ;
#93 = CIRCLE ( 'NONE', #139, 25.00000000000000000 ) ;
#94 = PERSON_AND_ORGANIZATION_ROLE ( 'design_supplier' ) ;
#95 = APPROVAL_DATE_TIME ( #23, #17 ) ;
#96 = PERSON ( 'UNSPECIFIED', 'UNSPECIFIED', 'UNSPECIFIED', ('UNSPECIFIED'), ('UNSPECIFIED'), ('UNSPECIFIED') ) ;
#97 = CC_DESIGN_PERSON_AND_ORGANIZATION_ASSIGNMENT ( #141, #12, ( #57 ) ) ;
#98 = FACE_OUTER_BOUND ( 'NONE', #167, .T. ) ;
#99 = COORDINATED_UNIVERSAL_TIME_OFFSET ( 5, 0, .BEHIND. ) ;
#100 = DIRECTION ( 'NONE',  ( 0.0000000000000000000, 0.0000000000000000000, 1.000000000000000000 ) ) ;
#101 =( NAMED_UNIT ( * ) SI_UNIT ( $, .STERADIAN. ) SOLID_ANGLE_UNIT ( ) );
#102 = ORIENTED_EDGE ( 'NONE', *, *, #60, .T. ) ;
#103 = DIRECTION ( 'NONE',  ( 0.0000000000000000000, 0.0000000000000000000, 1.000000000000000000 ) ) ;
#104 = DATE_AND_TIME ( #169, #31 ) ;
#105 = CARTESIAN_POINT ( 'NONE',  ( 0.0000000000000000000, 0.0000000000000000000, 2.000000000000000000 ) ) ;
#106 = CARTESIAN_POINT ( 'NONE',  ( 0.0000000000000000000, 0.0000000000000000000, 2.000000000000000000 ) ) ;
#107 = EDGE_LOOP ( 'NONE', ( #37, #55 ) ) ;
#108 = LOCAL_TIME ( 10, 30, 55.00000000000000000, #42 ) ;
#109 = APPROVAL ( #36, 'UNSPECIFIED' ) ;
#110 = EDGE_LOOP ( 'NONE', ( #114, #16, #102, #136 ) ) ;
#111 = AXIS2_PLACEMENT_3D ( 'NONE', #105, #24, #56 ) ;
#112 = CYLINDRICAL_SURFACE ( 'NONE', #72, 25.00000000000000000 ) ;
#113 = COORDINATED_UNIVERSAL_TIME_OFFSET ( 5, 0, .BEHIND. ) ;
#114 = ORIENTED_EDGE ( 'NONE', *, *, #27, .F. ) ;
#115 = CARTESIAN_POINT ( 'NONE',  ( 25.00000000000000000, 3.061616997868383000E-015, -2.000000000000000000 ) ) ;
#116 = LOCAL_TIME ( 10, 30, 55.00000000000000000, #79 ) ;
#117 = EDGE_CURVE ( 'NONE', #172, #48, #93, .T. ) ;
#118 = CARTESIAN_POINT ( 'NONE',  ( -25.00000000000000000, 0.0000000000000000000, 2.000000000000000000 ) ) ;
#119 = PERSON_AND_ORGANIZATION_ROLE ( 'classification_officer' ) ;
#120 = PERSON_AND_ORGANIZATION_ROLE ( 'design_owner' ) ;
#121 = CC_DESIGN_DATE_AND_TIME_ASSIGNMENT ( #123, #160, ( #3 ) ) ;
#122 = DIRECTION ( 'NONE',  ( 1.000000000000000000, 0.0000000000000000000, 0.0000000000000000000 ) ) ;
#123 = DATE_AND_TIME ( #34, #108 ) ;
#124 = DIRECTION ( 'NONE',  ( 0.0000000000000000000, 0.0000000000000000000, 1.000000000000000000 ) ) ;
#125 = ORIENTED_EDGE ( 'NONE', *, *, #147, .F. ) ;
#126 = VECTOR ( 'NONE', #89, 1000.000000000000000 ) ;
#127 = AXIS2_PLACEMENT_3D ( 'NONE', #62, #124, #83 ) ;
#128 = CC_DESIGN_DATE_AND_TIME_ASSIGNMENT ( #84, #170, ( #70 ) ) ;
#129 = COORDINATED_UNIVERSAL_TIME_OFFSET ( 5, 0, .BEHIND. ) ;
#130 = DIRECTION ( 'NONE',  ( -0.0000000000000000000, -0.0000000000000000000, -1.000000000000000000 ) ) ;
#131 = SECURITY_CLASSIFICATION_LEVEL ( 'unclassified' ) ;
#132 = EDGE_CURVE ( 'NONE', #48, #172, #30, .T. ) ;
#133 = CARTESIAN_POINT ( 'NONE',  ( 0.0000000000000000000, 0.0000000000000000000, 0.0000000000000000000 ) ) ;
#134 = VERTEX_POINT ( 'NONE', #21 ) ;
#135 = APPLICATION_CONTEXT ( 'configuration controlled 3d designs of mechanical parts and assemblies' ) ;
#136 = ORIENTED_EDGE ( 'NONE', *, *, #153, .T. ) ;
#137 = APPROVAL_DATE_TIME ( #104, #109 ) ;
#138 = CC_DESIGN_APPROVAL ( #109, ( #70 ) ) ;
#139 = AXIS2_PLACEMENT_3D ( 'NONE', #106, #64, #122 ) ;
#140 = ORIENTED_EDGE ( 'NONE', *, *, #153, .F. ) ;
#141 = PERSON_AND_ORGANIZATION ( #96, #146 ) ;
#142 = AXIS2_PLACEMENT_3D ( 'NONE', #77, #103, #80 ) ;
#143 = FACE_OUTER_BOUND ( 'NONE', #107, .T. ) ;
#144 = CC_DESIGN_SECURITY_CLASSIFICATION ( #70, ( #57 ) ) ;
#145 = DIRECTION ( 'NONE',  ( -0.0000000000000000000, -0.0000000000000000000, -1.000000000000000000 ) ) ;
#146 = ORGANIZATION ( 'UNSPECIFIED', 'UNSPECIFIED', '' ) ;
#147 = EDGE_CURVE ( 'NONE', #5, #134, #15, .T. ) ;
#148 = PERSON_AND_ORGANIZATION_ROLE ( 'creator' ) ;
#149 = APPROVAL_PERSON_ORGANIZATION ( #44, #109, #9 ) ;
#150 = CC_DESIGN_APPROVAL ( #32, ( #3 ) ) ;
#151 = APPROVAL_DATE_TIME ( #168, #32 ) ;
#152 = LINE ( 'NONE', #75, #126 ) ;
#153 = EDGE_CURVE ( 'NONE', #134, #5, #58, .T. ) ;
#154 = PERSON_AND_ORGANIZATION ( #96, #146 ) ;
#155 = AXIS2_PLACEMENT_3D ( 'NONE', #50, #100, #20 ) ;
#156 = DIRECTION ( 'NONE',  ( -1.000000000000000000, 0.0000000000000000000, 0.0000000000000000000 ) ) ;
#157 = ORIENTED_EDGE ( 'NONE', *, *, #147, .T. ) ;
#158 = APPLICATION_PROTOCOL_DEFINITION ( 'international standard', 'config_control_design', 1994, #54 ) ;
#159 = DIRECTION ( 'NONE',  ( 1.000000000000000000, 0.0000000000000000000, -0.0000000000000000000 ) ) ;
#160 = DATE_TIME_ROLE ( 'creation_date' ) ;
#161 = CARTESIAN_POINT ( 'NONE',  ( 25.00000000000000000, 3.061616997868383000E-015, 2.000000000000000000 ) ) ;
#162 = SHAPE_DEFINITION_REPRESENTATION ( #166, #2 ) ;
#163 = UNCERTAINTY_MEASURE_WITH_UNIT (LENGTH_MEASURE( 1.000000000000000100E-005 ), #171, 'distance_accuracy_value', 'NONE');
#164 = CC_DESIGN_APPROVAL ( #17, ( #57 ) ) ;
#165 = CC_DESIGN_PERSON_AND_ORGANIZATION_ASSIGNMENT ( #1, #119, ( #70 ) ) ;
#166 = PRODUCT_DEFINITION_SHAPE ( 'NONE', 'NONE',  #3 ) ;
#167 = EDGE_LOOP ( 'NONE', ( #4, #11, #157, #28 ) ) ;
#168 = DATE_AND_TIME ( #86, #71 ) ;
#169 = CALENDAR_DATE ( 2019, 7, 1 ) ;
#170 = DATE_TIME_ROLE ( 'classification_date' ) ;
#171 =( LENGTH_UNIT ( ) NAMED_UNIT ( * ) SI_UNIT ( .MILLI., .METRE. ) );
#172 = VERTEX_POINT ( 'NONE', #161 ) ;
#173 = CALENDAR_DATE ( 2019, 7, 1 ) ;
#174 = APPROVAL_ROLE ( '' ) ;
#175 = VECTOR ( 'NONE', #47, 1000.000000000000000 ) ;
ENDSEC;
END-ISO-10303-21;
