ISO-10303-21;
HEADER;
FILE_DESCRIPTION (( 'STEP AP203' ),
    '1' );
FILE_NAME ('Web Model 66187.STEP',
    '2017-01-31T19:34:20',
    ( '' ),
    ( '' ),
    'SwSTEP 2.0',
    'SolidWorks 2016',
    '' );
FILE_SCHEMA (( 'CONFIG_CONTROL_DESIGN' ));
ENDSEC;

DATA;
#1 = APPROVAL ( #61, 'UNSPECIFIED' ) ;
#2 = CALENDAR_DATE ( 2017, 31, 1 ) ;
#3 = CC_DESIGN_APPROVAL ( #114, ( #39 ) ) ;
#4 = DIRECTION ( 'NONE',  ( 0.0000000000000000000, 0.0000000000000000000, 1.000000000000000000 ) ) ;
#5 = LINE ( 'NONE', #33, #161 ) ;
#6 = DIRECTION ( 'NONE',  ( -0.0000000000000000000, -0.0000000000000000000, -1.000000000000000000 ) ) ;
#7 = DIRECTION ( 'NONE',  ( -0.0000000000000000000, -0.0000000000000000000, -1.000000000000000000 ) ) ;
#8 = CARTESIAN_POINT ( 'NONE',  ( 0.0000000000000000000, 0.0000000000000000000, 0.0000000000000000000 ) ) ;
#9 = APPLICATION_PROTOCOL_DEFINITION ( 'international standard', 'config_control_design', 1994, #148 ) ;
#10 = PERSON_AND_ORGANIZATION ( #29, #11 ) ;
#11 = ORGANIZATION ( 'UNSPECIFIED', 'UNSPECIFIED', '' ) ;
#12 = SECURITY_CLASSIFICATION_LEVEL ( 'unclassified' ) ;
#13 = CC_DESIGN_PERSON_AND_ORGANIZATION_ASSIGNMENT ( #166, #171, ( #52 ) ) ;
#14 = APPROVAL_PERSON_ORGANIZATION ( #19, #51, #48 ) ;
#15 = ORIENTED_EDGE ( 'NONE', *, *, #123, .F. ) ;
#16 = EDGE_LOOP ( 'NONE', ( #50, #96, #122, #28 ) ) ;
#17 = CARTESIAN_POINT ( 'NONE',  ( 10.00000000000000000, 1.224646799147353300E-015, 0.2000000000000000100 ) ) ;
#18 = CARTESIAN_POINT ( 'NONE',  ( 0.0000000000000000000, 0.0000000000000000000, 0.2000000000000000100 ) ) ;
#19 = PERSON_AND_ORGANIZATION ( #29, #11 ) ;
#20 =( NAMED_UNIT ( * ) SI_UNIT ( $, .STERADIAN. ) SOLID_ANGLE_UNIT ( ) );
#21 = PERSON_AND_ORGANIZATION_ROLE ( 'design_supplier' ) ;
#22 = CIRCLE ( 'NONE', #139, 10.00000000000000000 ) ;
#23 = UNCERTAINTY_MEASURE_WITH_UNIT (LENGTH_MEASURE( 1.000000000000000100E-005 ), #72, 'distance_accuracy_value', 'NONE');
#24 = DIRECTION ( 'NONE',  ( 1.000000000000000000, 0.0000000000000000000, 0.0000000000000000000 ) ) ;
#25 = CC_DESIGN_DATE_AND_TIME_ASSIGNMENT ( #160, #35, ( #27 ) ) ;
#26 = ORIENTED_EDGE ( 'NONE', *, *, #68, .T. ) ;
#27 = SECURITY_CLASSIFICATION ( '', '', #12 ) ;
#28 = ORIENTED_EDGE ( 'NONE', *, *, #174, .F. ) ;
#29 = PERSON ( 'UNSPECIFIED', 'UNSPECIFIED', 'UNSPECIFIED', ('UNSPECIFIED'), ('UNSPECIFIED'), ('UNSPECIFIED') ) ;
#30 = PERSON_AND_ORGANIZATION ( #29, #11 ) ;
#31 = CARTESIAN_POINT ( 'NONE',  ( 0.0000000000000000000, 0.0000000000000000000, 0.0000000000000000000 ) ) ;
#32 = CARTESIAN_POINT ( 'NONE',  ( 0.0000000000000000000, 0.0000000000000000000, 0.2000000000000000100 ) ) ;
#33 = CARTESIAN_POINT ( 'NONE',  ( 10.00000000000000000, 1.224646799147353300E-015, 0.2000000000000000100 ) ) ;
#34 = DIRECTION ( 'NONE',  ( 1.000000000000000000, 0.0000000000000000000, 0.0000000000000000000 ) ) ;
#35 = DATE_TIME_ROLE ( 'classification_date' ) ;
#36 = PERSON_AND_ORGANIZATION ( #29, #11 ) ;
#37 = SHAPE_DEFINITION_REPRESENTATION ( #110, #164 ) ;
#38 = AXIS2_PLACEMENT_3D ( 'NONE', #71, #90, #24 ) ;
#39 = PRODUCT_DEFINITION_FORMATION_WITH_SPECIFIED_SOURCE ( 'ANY', '', #52, .NOT_KNOWN. ) ;
#40 = EDGE_LOOP ( 'NONE', ( #107, #15, #94, #26 ) ) ;
#41 = EDGE_LOOP ( 'NONE', ( #132, #63 ) ) ;
#42 = DIRECTION ( 'NONE',  ( 0.0000000000000000000, 0.0000000000000000000, 1.000000000000000000 ) ) ;
#43 = PRODUCT_DEFINITION ( 'UNKNOWN', '', #39, #66 ) ;
#44 = DATE_AND_TIME ( #79, #78 ) ;
#45 = PERSON_AND_ORGANIZATION ( #29, #11 ) ;
#46 = LINE ( 'NONE', #169, #70 ) ;
#47 = AXIS2_PLACEMENT_3D ( 'NONE', #32, #129, #115 ) ;
#48 = APPROVAL_ROLE ( '' ) ;
#49 = AXIS2_PLACEMENT_3D ( 'NONE', #57, #42, #165 ) ;
#50 = ORIENTED_EDGE ( 'NONE', *, *, #109, .F. ) ;
#51 = APPROVAL ( #104, 'UNSPECIFIED' ) ;
#52 = PRODUCT ( 'Web Model 66187', 'Web Model 66187', '', ( #73 ) ) ;
#53 = CC_DESIGN_PERSON_AND_ORGANIZATION_ASSIGNMENT ( #54, #103, ( #39 ) ) ;
#54 = PERSON_AND_ORGANIZATION ( #29, #11 ) ;
#55 = CIRCLE ( 'NONE', #158, 10.00000000000000000 ) ;
#56 = DIRECTION ( 'NONE',  ( -0.0000000000000000000, -0.0000000000000000000, -1.000000000000000000 ) ) ;
#57 = CARTESIAN_POINT ( 'NONE',  ( 0.0000000000000000000, 0.0000000000000000000, 0.2000000000000000100 ) ) ;
#58 = CARTESIAN_POINT ( 'NONE',  ( 0.0000000000000000000, 0.0000000000000000000, 0.2000000000000000100 ) ) ;
#59 = APPROVAL_PERSON_ORGANIZATION ( #30, #1, #108 ) ;
#60 = ORIENTED_EDGE ( 'NONE', *, *, #123, .T. ) ;
#61 = APPROVAL_STATUS ( 'not_yet_approved' ) ;
#62 = DATE_TIME_ROLE ( 'creation_date' ) ;
#63 = ORIENTED_EDGE ( 'NONE', *, *, #87, .F. ) ;
#64 = CC_DESIGN_PERSON_AND_ORGANIZATION_ASSIGNMENT ( #36, #21, ( #39 ) ) ;
#65 = AXIS2_PLACEMENT_3D ( 'NONE', #31, #99, #83 ) ;
#66 = DESIGN_CONTEXT ( 'detailed design', #148, 'design' ) ;
#67 = LOCAL_TIME ( 14, 34, 20.00000000000000000, #151 ) ;
#68 = EDGE_CURVE ( 'NONE', #147, #163, #55, .T. ) ;
#69 = COORDINATED_UNIVERSAL_TIME_OFFSET ( 5, 0, .BEHIND. ) ;
#70 = VECTOR ( 'NONE', #100, 1000.000000000000000 ) ;
#71 = CARTESIAN_POINT ( 'NONE',  ( 0.0000000000000000000, 0.0000000000000000000, 0.0000000000000000000 ) ) ;
#72 =( LENGTH_UNIT ( ) NAMED_UNIT ( * ) SI_UNIT ( .MILLI., .METRE. ) );
#73 = MECHANICAL_CONTEXT ( 'NONE', #133, 'mechanical' ) ;
#74 = CC_DESIGN_SECURITY_CLASSIFICATION ( #27, ( #39 ) ) ;
#75 = APPROVAL_STATUS ( 'not_yet_approved' ) ;
#76 = FACE_OUTER_BOUND ( 'NONE', #40, .T. ) ;
#77 = ADVANCED_FACE ( 'NONE', ( #119 ), #130, .T. ) ;
#78 = LOCAL_TIME ( 14, 34, 20.00000000000000000, #153 ) ;
#79 = CALENDAR_DATE ( 2017, 31, 1 ) ;
#80 = EDGE_LOOP ( 'NONE', ( #60, #162 ) ) ;
#81 = DIRECTION ( 'NONE',  ( 1.000000000000000000, 0.0000000000000000000, -0.0000000000000000000 ) ) ;
#82 = CARTESIAN_POINT ( 'NONE',  ( 0.0000000000000000000, 0.0000000000000000000, 0.2000000000000000100 ) ) ;
#83 = DIRECTION ( 'NONE',  ( 1.000000000000000000, 0.0000000000000000000, -0.0000000000000000000 ) ) ;
#84 = CYLINDRICAL_SURFACE ( 'NONE', #121, 10.00000000000000000 ) ;
#85 =( NAMED_UNIT ( * ) PLANE_ANGLE_UNIT ( ) SI_UNIT ( $, .RADIAN. ) );
#86 = PERSON_AND_ORGANIZATION_ROLE ( 'creator' ) ;
#87 = EDGE_CURVE ( 'NONE', #163, #147, #22, .T. ) ;
#88 = LOCAL_TIME ( 14, 34, 20.00000000000000000, #141 ) ;
#89 = ADVANCED_FACE ( 'NONE', ( #157 ), #143, .F. ) ;
#90 = DIRECTION ( 'NONE',  ( 0.0000000000000000000, 0.0000000000000000000, 1.000000000000000000 ) ) ;
#91 = APPROVAL_ROLE ( '' ) ;
#92 = MANIFOLD_SOLID_BREP ( 'Extrude1', #135 ) ;
#93 = CIRCLE ( 'NONE', #49, 10.00000000000000000 ) ;
#94 = ORIENTED_EDGE ( 'NONE', *, *, #174, .T. ) ;
#95 = CC_DESIGN_DATE_AND_TIME_ASSIGNMENT ( #142, #62, ( #43 ) ) ;
#96 = ORIENTED_EDGE ( 'NONE', *, *, #113, .T. ) ;
#97 = VERTEX_POINT ( 'NONE', #117 ) ;
#98 = AXIS2_PLACEMENT_3D ( 'NONE', #58, #102, #81 ) ;
#99 = DIRECTION ( 'NONE',  ( 0.0000000000000000000, 0.0000000000000000000, 1.000000000000000000 ) ) ;
#100 = DIRECTION ( 'NONE',  ( -0.0000000000000000000, -0.0000000000000000000, -1.000000000000000000 ) ) ;
#101 = CC_DESIGN_APPROVAL ( #51, ( #43 ) ) ;
#102 = DIRECTION ( 'NONE',  ( 0.0000000000000000000, 0.0000000000000000000, 1.000000000000000000 ) ) ;
#103 = PERSON_AND_ORGANIZATION_ROLE ( 'creator' ) ;
#104 = APPROVAL_STATUS ( 'not_yet_approved' ) ;
#105 = CC_DESIGN_PERSON_AND_ORGANIZATION_ASSIGNMENT ( #45, #118, ( #27 ) ) ;
#106 = DATE_AND_TIME ( #140, #88 ) ;
#107 = ORIENTED_EDGE ( 'NONE', *, *, #113, .F. ) ;
#108 = APPROVAL_ROLE ( '' ) ;
#109 = EDGE_CURVE ( 'NONE', #127, #97, #112, .T. ) ;
#110 = PRODUCT_DEFINITION_SHAPE ( 'NONE', 'NONE',  #43 ) ;
#111 = DATE_AND_TIME ( #137, #172 ) ;
#112 = CIRCLE ( 'NONE', #47, 10.00000000000000000 ) ;
#113 = EDGE_CURVE ( 'NONE', #127, #163, #5, .T. ) ;
#114 = APPROVAL ( #75, 'UNSPECIFIED' ) ;
#115 = DIRECTION ( 'NONE',  ( 1.000000000000000000, 0.0000000000000000000, 0.0000000000000000000 ) ) ;
#116 = DIRECTION ( 'NONE',  ( -1.000000000000000000, 0.0000000000000000000, 0.0000000000000000000 ) ) ;
#117 = CARTESIAN_POINT ( 'NONE',  ( -10.00000000000000000, 0.0000000000000000000, 0.2000000000000000100 ) ) ;
#118 = PERSON_AND_ORGANIZATION_ROLE ( 'classification_officer' ) ;
#119 = FACE_OUTER_BOUND ( 'NONE', #80, .T. ) ;
#120 = CC_DESIGN_APPROVAL ( #1, ( #27 ) ) ;
#121 = AXIS2_PLACEMENT_3D ( 'NONE', #82, #6, #116 ) ;
#122 = ORIENTED_EDGE ( 'NONE', *, *, #87, .T. ) ;
#123 = EDGE_CURVE ( 'NONE', #97, #127, #93, .T. ) ;
#124 = APPROVAL_PERSON_ORGANIZATION ( #10, #114, #91 ) ;
#125 = FACE_OUTER_BOUND ( 'NONE', #16, .T. ) ;
#126 = DIRECTION ( 'NONE',  ( 1.000000000000000000, 0.0000000000000000000, 0.0000000000000000000 ) ) ;
#127 = VERTEX_POINT ( 'NONE', #17 ) ;
#128 = PRODUCT_RELATED_PRODUCT_CATEGORY ( 'detail', '', ( #52 ) ) ;
#129 = DIRECTION ( 'NONE',  ( 0.0000000000000000000, 0.0000000000000000000, 1.000000000000000000 ) ) ;
#130 = PLANE ( 'NONE',  #98 ) ;
#131 = APPLICATION_PROTOCOL_DEFINITION ( 'international standard', 'config_control_design', 1994, #133 ) ;
#132 = ORIENTED_EDGE ( 'NONE', *, *, #68, .F. ) ;
#133 = APPLICATION_CONTEXT ( 'configuration controlled 3d designs of mechanical parts and assemblies' ) ;
#134 = CC_DESIGN_PERSON_AND_ORGANIZATION_ASSIGNMENT ( #138, #86, ( #43 ) ) ;
#135 = CLOSED_SHELL ( 'NONE', ( #170, #156, #77, #89 ) ) ;
#136 = AXIS2_PLACEMENT_3D ( 'NONE', #18, #56, #167 ) ;
#137 = CALENDAR_DATE ( 2017, 31, 1 ) ;
#138 = PERSON_AND_ORGANIZATION ( #29, #11 ) ;
#139 = AXIS2_PLACEMENT_3D ( 'NONE', #145, #4, #34 ) ;
#140 = CALENDAR_DATE ( 2017, 31, 1 ) ;
#141 = COORDINATED_UNIVERSAL_TIME_OFFSET ( 5, 0, .BEHIND. ) ;
#142 = DATE_AND_TIME ( #2, #146 ) ;
#143 = PLANE ( 'NONE',  #65 ) ;
#144 = DIRECTION ( 'NONE',  ( 0.0000000000000000000, 0.0000000000000000000, 1.000000000000000000 ) ) ;
#145 = CARTESIAN_POINT ( 'NONE',  ( 0.0000000000000000000, 0.0000000000000000000, 0.0000000000000000000 ) ) ;
#146 = LOCAL_TIME ( 14, 34, 20.00000000000000000, #150 ) ;
#147 = VERTEX_POINT ( 'NONE', #154 ) ;
#148 = APPLICATION_CONTEXT ( 'configuration controlled 3d designs of mechanical parts and assemblies' ) ;
#149 = CALENDAR_DATE ( 2017, 31, 1 ) ;
#150 = COORDINATED_UNIVERSAL_TIME_OFFSET ( 5, 0, .BEHIND. ) ;
#151 = COORDINATED_UNIVERSAL_TIME_OFFSET ( 5, 0, .BEHIND. ) ;
#152 = APPROVAL_DATE_TIME ( #111, #114 ) ;
#153 = COORDINATED_UNIVERSAL_TIME_OFFSET ( 5, 0, .BEHIND. ) ;
#154 = CARTESIAN_POINT ( 'NONE',  ( -10.00000000000000000, 0.0000000000000000000, 0.0000000000000000000 ) ) ;
#155 = CARTESIAN_POINT ( 'NONE',  ( 10.00000000000000000, 1.224646799147353300E-015, 0.0000000000000000000 ) ) ;
#156 = ADVANCED_FACE ( 'NONE', ( #76 ), #84, .T. ) ;
#157 = FACE_OUTER_BOUND ( 'NONE', #41, .T. ) ;
#158 = AXIS2_PLACEMENT_3D ( 'NONE', #8, #144, #126 ) ;
#159 = CYLINDRICAL_SURFACE ( 'NONE', #136, 10.00000000000000000 ) ;
#160 = DATE_AND_TIME ( #149, #67 ) ;
#161 = VECTOR ( 'NONE', #7, 1000.000000000000000 ) ;
#162 = ORIENTED_EDGE ( 'NONE', *, *, #109, .T. ) ;
#163 = VERTEX_POINT ( 'NONE', #155 ) ;
#164 = ADVANCED_BREP_SHAPE_REPRESENTATION ( 'Web Model 66187', ( #92, #38 ), #168 ) ;
#165 = DIRECTION ( 'NONE',  ( 1.000000000000000000, 0.0000000000000000000, 0.0000000000000000000 ) ) ;
#166 = PERSON_AND_ORGANIZATION ( #29, #11 ) ;
#167 = DIRECTION ( 'NONE',  ( -1.000000000000000000, 0.0000000000000000000, 0.0000000000000000000 ) ) ;
#168 =( GEOMETRIC_REPRESENTATION_CONTEXT ( 3 ) GLOBAL_UNCERTAINTY_ASSIGNED_CONTEXT ( ( #23 ) ) GLOBAL_UNIT_ASSIGNED_CONTEXT ( ( #72, #85, #20 ) ) REPRESENTATION_CONTEXT ( 'NONE', 'WORKASPACE' ) );
#169 = CARTESIAN_POINT ( 'NONE',  ( -10.00000000000000000, 0.0000000000000000000, 0.2000000000000000100 ) ) ;
#170 = ADVANCED_FACE ( 'NONE', ( #125 ), #159, .T. ) ;
#171 = PERSON_AND_ORGANIZATION_ROLE ( 'design_owner' ) ;
#172 = LOCAL_TIME ( 14, 34, 20.00000000000000000, #69 ) ;
#173 = APPROVAL_DATE_TIME ( #44, #51 ) ;
#174 = EDGE_CURVE ( 'NONE', #97, #147, #46, .T. ) ;
#175 = APPROVAL_DATE_TIME ( #106, #1 ) ;
ENDSEC;
END-ISO-10303-21;
