ISO-10303-21;
HEADER;
FILE_DESCRIPTION (( 'STEP AP203' ),
    '1' );
FILE_NAME ('Web Model 46099_46099.step',
    '2017-03-01T20:52:16',
    ( '' ),
    ( '' ),
    'SwSTEP 2.0',
    'SolidWorks 2016',
    '' );
FILE_SCHEMA (( 'CONFIG_CONTROL_DESIGN' ));
ENDSEC;

DATA;
#1 = EDGE_LOOP ( 'NONE', ( #172, #109, #41, #58 ) ) ;
#2 = DIRECTION ( 'NONE',  ( 0.0000000000000000000, 0.0000000000000000000, 1.000000000000000000 ) ) ;
#3 = CARTESIAN_POINT ( 'NONE',  ( -25.39999999999999900, 25.39999999999999900, 3.000000000000000000 ) ) ;
#4 = CC_DESIGN_PERSON_AND_ORGANIZATION_ASSIGNMENT ( #88, #11, ( #207 ) ) ;
#5 = DIRECTION ( 'NONE',  ( 1.365923996832131900E-016, -1.000000000000000000, 0.0000000000000000000 ) ) ;
#6 = EDGE_LOOP ( 'NONE', ( #113, #56, #37, #231 ) ) ;
#7 = PERSON_AND_ORGANIZATION_ROLE ( 'creator' ) ;
#8 = VERTEX_POINT ( 'NONE', #151 ) ;
#9 = AXIS2_PLACEMENT_3D ( 'NONE', #104, #178, #119 ) ;
#10 =( LENGTH_UNIT ( ) NAMED_UNIT ( * ) SI_UNIT ( .MILLI., .METRE. ) );
#11 = PERSON_AND_ORGANIZATION_ROLE ( 'creator' ) ;
#12 = CARTESIAN_POINT ( 'NONE',  ( -25.39999999999999900, 25.39999999999999900, 3.000000000000000000 ) ) ;
#13 = DIRECTION ( 'NONE',  ( 1.000000000000000000, 0.0000000000000000000, 0.0000000000000000000 ) ) ;
#14 = ORIENTED_EDGE ( 'NONE', *, *, #92, .F. ) ;
#15 = CARTESIAN_POINT ( 'NONE',  ( -25.39999999999999900, 25.39999999999999900, 3.000000000000000000 ) ) ;
#16 = PRODUCT ( 'Web Model 46099_46099', 'Web Model 46099_46099', '', ( #137 ) ) ;
#17 = CC_DESIGN_PERSON_AND_ORGANIZATION_ASSIGNMENT ( #35, #32, ( #207 ) ) ;
#18 = VERTEX_POINT ( 'NONE', #77 ) ;
#19 = ORIENTED_EDGE ( 'NONE', *, *, #78, .T. ) ;
#20 = LOCAL_TIME ( 15, 52, 16.00000000000000000, #229 ) ;
#21 = CARTESIAN_POINT ( 'NONE',  ( -25.39999999999999900, 25.39999999999999900, 0.0000000000000000000 ) ) ;
#22 = DIRECTION ( 'NONE',  ( -0.0000000000000000000, -0.0000000000000000000, -1.000000000000000000 ) ) ;
#23 = CARTESIAN_POINT ( 'NONE',  ( 25.39999999999999900, 25.39999999999999100, 3.000000000000000000 ) ) ;
#24 = VECTOR ( 'NONE', #103, 1000.000000000000000 ) ;
#25 = APPROVAL_ROLE ( '' ) ;
#26 = PLANE ( 'NONE',  #221 ) ;
#27 = EDGE_LOOP ( 'NONE', ( #97, #107, #212, #183 ) ) ;
#28 = APPROVAL_STATUS ( 'not_yet_approved' ) ;
#29 = APPLICATION_CONTEXT ( 'configuration controlled 3d designs of mechanical parts and assemblies' ) ;
#30 = VERTEX_POINT ( 'NONE', #195 ) ;
#31 = DIRECTION ( 'NONE',  ( 1.000000000000000000, 0.0000000000000000000, 0.0000000000000000000 ) ) ;
#32 = PERSON_AND_ORGANIZATION_ROLE ( 'design_supplier' ) ;
#33 = SECURITY_CLASSIFICATION ( '', '', #155 ) ;
#34 = DIRECTION ( 'NONE',  ( -0.0000000000000000000, 0.0000000000000000000, 1.000000000000000000 ) ) ;
#35 = PERSON_AND_ORGANIZATION ( #38, #173 ) ;
#36 = DIRECTION ( 'NONE',  ( 1.000000000000000000, 0.0000000000000000000, 0.0000000000000000000 ) ) ;
#37 = ORIENTED_EDGE ( 'NONE', *, *, #129, .F. ) ;
#38 = PERSON ( 'UNSPECIFIED', 'UNSPECIFIED', 'UNSPECIFIED', ('UNSPECIFIED'), ('UNSPECIFIED'), ('UNSPECIFIED') ) ;
#39 = AXIS2_PLACEMENT_3D ( 'NONE', #159, #211, #141 ) ;
#40 = APPROVAL_DATE_TIME ( #71, #215 ) ;
#41 = ORIENTED_EDGE ( 'NONE', *, *, #184, .T. ) ;
#42 = CALENDAR_DATE ( 2017, 1, 3 ) ;
#43 = ADVANCED_FACE ( 'NONE', ( #198 ), #26, .F. ) ;
#44 = CARTESIAN_POINT ( 'NONE',  ( -25.39999999999999100, -25.39999999999999100, 3.000000000000000000 ) ) ;
#45 = CC_DESIGN_PERSON_AND_ORGANIZATION_ASSIGNMENT ( #131, #153, ( #33 ) ) ;
#46 = LOCAL_TIME ( 15, 52, 16.00000000000000000, #75 ) ;
#47 = DIRECTION ( 'NONE',  ( -0.0000000000000000000, 0.0000000000000000000, 1.000000000000000000 ) ) ;
#48 = PERSON_AND_ORGANIZATION ( #38, #173 ) ;
#49 = APPROVAL_STATUS ( 'not_yet_approved' ) ;
#50 = ORIENTED_EDGE ( 'NONE', *, *, #114, .F. ) ;
#51 = APPROVAL_ROLE ( '' ) ;
#52 = ADVANCED_FACE ( 'NONE', ( #73 ), #68, .F. ) ;
#53 =( NAMED_UNIT ( * ) SI_UNIT ( $, .STERADIAN. ) SOLID_ANGLE_UNIT ( ) );
#54 = CARTESIAN_POINT ( 'NONE',  ( -25.39999999999999900, 25.39999999999999900, 3.000000000000000000 ) ) ;
#55 = UNCERTAINTY_MEASURE_WITH_UNIT (LENGTH_MEASURE( 1.000000000000000100E-005 ), #10, 'distance_accuracy_value', 'NONE');
#56 = ORIENTED_EDGE ( 'NONE', *, *, #167, .F. ) ;
#57 = CC_DESIGN_DATE_AND_TIME_ASSIGNMENT ( #101, #175, ( #33 ) ) ;
#58 = ORIENTED_EDGE ( 'NONE', *, *, #106, .T. ) ;
#59 = LINE ( 'NONE', #191, #93 ) ;
#60 = ORIENTED_EDGE ( 'NONE', *, *, #214, .F. ) ;
#61 = AXIS2_PLACEMENT_3D ( 'NONE', #180, #34, #13 ) ;
#62 = DIRECTION ( 'NONE',  ( -0.0000000000000000000, -0.0000000000000000000, -1.000000000000000000 ) ) ;
#63 = ADVANCED_FACE ( 'NONE', ( #132 ), #230, .F. ) ;
#64 = CALENDAR_DATE ( 2017, 1, 3 ) ;
#65 = DATE_TIME_ROLE ( 'creation_date' ) ;
#66 = DIRECTION ( 'NONE',  ( -1.000000000000000000, 1.365923996832131600E-016, -0.0000000000000000000 ) ) ;
#67 = VERTEX_POINT ( 'NONE', #213 ) ;
#68 = PLANE ( 'NONE',  #9 ) ;
#69 = FACE_OUTER_BOUND ( 'NONE', #1, .T. ) ;
#70 = CARTESIAN_POINT ( 'NONE',  ( 25.39999999999999900, 25.39999999999999100, 3.000000000000000000 ) ) ;
#71 = DATE_AND_TIME ( #222, #46 ) ;
#72 = SHAPE_DEFINITION_REPRESENTATION ( #146, #123 ) ;
#73 = FACE_OUTER_BOUND ( 'NONE', #124, .T. ) ;
#74 = PERSON_AND_ORGANIZATION ( #38, #173 ) ;
#75 = COORDINATED_UNIVERSAL_TIME_OFFSET ( 5, 0, .BEHIND. ) ;
#76 = ORIENTED_EDGE ( 'NONE', *, *, #167, .T. ) ;
#77 = CARTESIAN_POINT ( 'NONE',  ( 25.40000000000000600, -25.39999999999998400, 0.0000000000000000000 ) ) ;
#78 = EDGE_CURVE ( 'NONE', #147, #128, #217, .T. ) ;
#79 = AXIS2_PLACEMENT_3D ( 'NONE', #54, #85, #140 ) ;
#80 = APPROVAL_ROLE ( '' ) ;
#81 = LINE ( 'NONE', #70, #190 ) ;
#82 = DATE_AND_TIME ( #177, #208 ) ;
#83 = CARTESIAN_POINT ( 'NONE',  ( 25.40000000000000600, -25.39999999999998400, 3.000000000000000000 ) ) ;
#84 = LINE ( 'NONE', #87, #205 ) ;
#85 = DIRECTION ( 'NONE',  ( 1.000000000000000000, 1.365923996832131900E-016, -0.0000000000000000000 ) ) ;
#86 = CALENDAR_DATE ( 2017, 1, 3 ) ;
#87 = CARTESIAN_POINT ( 'NONE',  ( -25.39999999999999900, 25.39999999999999900, 0.0000000000000000000 ) ) ;
#88 = PERSON_AND_ORGANIZATION ( #38, #173 ) ;
#89 = APPROVAL_PERSON_ORGANIZATION ( #48, #156, #80 ) ;
#90 = EDGE_LOOP ( 'NONE', ( #202, #220, #60, #76 ) ) ;
#91 = DIRECTION ( 'NONE',  ( 1.000000000000000000, 1.365923996832131600E-016, 0.0000000000000000000 ) ) ;
#92 = EDGE_CURVE ( 'NONE', #128, #67, #84, .T. ) ;
#93 = VECTOR ( 'NONE', #91, 1000.000000000000000 ) ;
#94 =( GEOMETRIC_REPRESENTATION_CONTEXT ( 3 ) GLOBAL_UNCERTAINTY_ASSIGNED_CONTEXT ( ( #55 ) ) GLOBAL_UNIT_ASSIGNED_CONTEXT ( ( #10, #227, #53 ) ) REPRESENTATION_CONTEXT ( 'NONE', 'WORKASPACE' ) );
#95 = DIRECTION ( 'NONE',  ( 1.000000000000000000, 1.365923996832131600E-016, 0.0000000000000000000 ) ) ;
#96 = DIRECTION ( 'NONE',  ( -1.000000000000000000, -1.365923996832132300E-016, 0.0000000000000000000 ) ) ;
#97 = ORIENTED_EDGE ( 'NONE', *, *, #144, .T. ) ;
#98 = APPLICATION_CONTEXT ( 'configuration controlled 3d designs of mechanical parts and assemblies' ) ;
#99 = APPLICATION_PROTOCOL_DEFINITION ( 'international standard', 'config_control_design', 1994, #98 ) ;
#100 = VERTEX_POINT ( 'NONE', #83 ) ;
#101 = DATE_AND_TIME ( #64, #20 ) ;
#102 = ADVANCED_FACE ( 'NONE', ( #69 ), #157, .T. ) ;
#103 = DIRECTION ( 'NONE',  ( -0.0000000000000000000, -0.0000000000000000000, -1.000000000000000000 ) ) ;
#104 = CARTESIAN_POINT ( 'NONE',  ( -25.39999999999999900, 25.39999999999999900, 3.000000000000000000 ) ) ;
#105 = VECTOR ( 'NONE', #5, 1000.000000000000000 ) ;
#106 = EDGE_CURVE ( 'NONE', #147, #193, #179, .T. ) ;
#107 = ORIENTED_EDGE ( 'NONE', *, *, #78, .F. ) ;
#108 = AXIS2_PLACEMENT_3D ( 'NONE', #23, #96, #148 ) ;
#109 = ORIENTED_EDGE ( 'NONE', *, *, #214, .T. ) ;
#110 = COORDINATED_UNIVERSAL_TIME_OFFSET ( 5, 0, .BEHIND. ) ;
#111 = CARTESIAN_POINT ( 'NONE',  ( 0.0000000000000000000, 0.0000000000000000000, 0.0000000000000000000 ) ) ;
#112 = ADVANCED_FACE ( 'NONE', ( #203 ), #117, .F. ) ;
#113 = ORIENTED_EDGE ( 'NONE', *, *, #154, .T. ) ;
#114 = EDGE_CURVE ( 'NONE', #193, #67, #163, .T. ) ;
#115 = AXIS2_PLACEMENT_3D ( 'NONE', #111, #2, #31 ) ;
#116 = DIRECTION ( 'NONE',  ( -1.000000000000000000, 1.365923996832131600E-016, -0.0000000000000000000 ) ) ;
#117 = PLANE ( 'NONE',  #79 ) ;
#118 = FACE_OUTER_BOUND ( 'NONE', #27, .T. ) ;
#119 = DIRECTION ( 'NONE',  ( 1.000000000000000000, -1.365923996832131600E-016, 0.0000000000000000000 ) ) ;
#120 = VECTOR ( 'NONE', #62, 1000.000000000000000 ) ;
#121 = DATE_AND_TIME ( #42, #219 ) ;
#122 = APPROVAL ( #28, 'UNSPECIFIED' ) ;
#123 = ADVANCED_BREP_SHAPE_REPRESENTATION ( 'Web Model 46099_46099', ( #235, #115 ), #94 ) ;
#124 = EDGE_LOOP ( 'NONE', ( #204, #50, #135, #19 ) ) ;
#125 = LINE ( 'NONE', #192, #120 ) ;
#126 = DATE_AND_TIME ( #86, #188 ) ;
#127 = CARTESIAN_POINT ( 'NONE',  ( 25.39999999999999900, 25.39999999999999100, 3.000000000000000000 ) ) ;
#128 = VERTEX_POINT ( 'NONE', #201 ) ;
#129 = EDGE_CURVE ( 'NONE', #193, #8, #168, .T. ) ;
#130 = CC_DESIGN_PERSON_AND_ORGANIZATION_ASSIGNMENT ( #224, #209, ( #16 ) ) ;
#131 = PERSON_AND_ORGANIZATION ( #38, #173 ) ;
#132 = FACE_OUTER_BOUND ( 'NONE', #90, .T. ) ;
#133 = ADVANCED_FACE ( 'NONE', ( #118 ), #218, .F. ) ;
#134 = APPROVAL_DATE_TIME ( #126, #156 ) ;
#135 = ORIENTED_EDGE ( 'NONE', *, *, #106, .F. ) ;
#136 = APPLICATION_PROTOCOL_DEFINITION ( 'international standard', 'config_control_design', 1994, #29 ) ;
#137 = MECHANICAL_CONTEXT ( 'NONE', #29, 'mechanical' ) ;
#138 = LINE ( 'NONE', #189, #210 ) ;
#139 = CC_DESIGN_APPROVAL ( #122, ( #33 ) ) ;
#140 = DIRECTION ( 'NONE',  ( -1.365923996832131900E-016, 1.000000000000000000, 0.0000000000000000000 ) ) ;
#141 = DIRECTION ( 'NONE',  ( -1.000000000000000000, -1.365923996832131600E-016, 0.0000000000000000000 ) ) ;
#142 = PERSON_AND_ORGANIZATION ( #38, #173 ) ;
#143 = EDGE_LOOP ( 'NONE', ( #174, #14, #166, #225 ) ) ;
#144 = EDGE_CURVE ( 'NONE', #18, #128, #138, .T. ) ;
#145 = PRODUCT_DEFINITION ( 'UNKNOWN', '', #207, #164 ) ;
#146 = PRODUCT_DEFINITION_SHAPE ( 'NONE', 'NONE',  #145 ) ;
#147 = VERTEX_POINT ( 'NONE', #127 ) ;
#148 = DIRECTION ( 'NONE',  ( 1.365923996832132300E-016, -1.000000000000000000, 0.0000000000000000000 ) ) ;
#149 = CC_DESIGN_SECURITY_CLASSIFICATION ( #33, ( #207 ) ) ;
#150 = DIRECTION ( 'NONE',  ( 1.365923996832131900E-016, -1.000000000000000000, 0.0000000000000000000 ) ) ;
#151 = CARTESIAN_POINT ( 'NONE',  ( -25.39999999999999100, -25.39999999999999100, 3.000000000000000000 ) ) ;
#152 = CLOSED_SHELL ( 'NONE', ( #112, #63, #133, #52, #102, #43 ) ) ;
#153 = PERSON_AND_ORGANIZATION_ROLE ( 'classification_officer' ) ;
#154 = EDGE_CURVE ( 'NONE', #67, #30, #196, .T. ) ;
#155 = SECURITY_CLASSIFICATION_LEVEL ( 'unclassified' ) ;
#156 = APPROVAL ( #194, 'UNSPECIFIED' ) ;
#157 = PLANE ( 'NONE',  #61 ) ;
#158 = CARTESIAN_POINT ( 'NONE',  ( 25.39999999999999900, 25.39999999999999100, 3.000000000000000000 ) ) ;
#159 = CARTESIAN_POINT ( 'NONE',  ( -25.39999999999999100, -25.39999999999999100, 3.000000000000000000 ) ) ;
#160 = VECTOR ( 'NONE', #66, 1000.000000000000000 ) ;
#161 = APPROVAL_DATE_TIME ( #82, #122 ) ;
#162 = PRODUCT_RELATED_PRODUCT_CATEGORY ( 'detail', '', ( #16 ) ) ;
#163 = LINE ( 'NONE', #12, #24 ) ;
#164 = DESIGN_CONTEXT ( 'detailed design', #98, 'design' ) ;
#165 = DIRECTION ( 'NONE',  ( -1.365923996832132300E-016, 1.000000000000000000, -0.0000000000000000000 ) ) ;
#166 = ORIENTED_EDGE ( 'NONE', *, *, #144, .F. ) ;
#167 = EDGE_CURVE ( 'NONE', #8, #30, #237, .T. ) ;
#168 = LINE ( 'NONE', #232, #105 ) ;
#169 = CC_DESIGN_APPROVAL ( #156, ( #145 ) ) ;
#170 = CARTESIAN_POINT ( 'NONE',  ( -25.39999999999999100, -25.39999999999999100, 3.000000000000000000 ) ) ;
#171 = CARTESIAN_POINT ( 'NONE',  ( 0.0000000000000000000, 0.0000000000000000000, 0.0000000000000000000 ) ) ;
#172 = ORIENTED_EDGE ( 'NONE', *, *, #129, .T. ) ;
#173 = ORGANIZATION ( 'UNSPECIFIED', 'UNSPECIFIED', '' ) ;
#174 = ORIENTED_EDGE ( 'NONE', *, *, #154, .F. ) ;
#175 = DATE_TIME_ROLE ( 'classification_date' ) ;
#176 = VECTOR ( 'NONE', #150, 1000.000000000000000 ) ;
#177 = CALENDAR_DATE ( 2017, 1, 3 ) ;
#178 = DIRECTION ( 'NONE',  ( -1.365923996832131600E-016, -1.000000000000000000, 0.0000000000000000000 ) ) ;
#179 = LINE ( 'NONE', #15, #160 ) ;
#180 = CARTESIAN_POINT ( 'NONE',  ( 0.0000000000000000000, 0.0000000000000000000, 3.000000000000000000 ) ) ;
#181 = VECTOR ( 'NONE', #95, 1000.000000000000000 ) ;
#182 = COORDINATED_UNIVERSAL_TIME_OFFSET ( 5, 0, .BEHIND. ) ;
#183 = ORIENTED_EDGE ( 'NONE', *, *, #206, .T. ) ;
#184 = EDGE_CURVE ( 'NONE', #100, #147, #81, .T. ) ;
#185 = CC_DESIGN_PERSON_AND_ORGANIZATION_ASSIGNMENT ( #142, #7, ( #145 ) ) ;
#186 = PERSON_AND_ORGANIZATION ( #38, #173 ) ;
#187 = VECTOR ( 'NONE', #200, 1000.000000000000000 ) ;
#188 = LOCAL_TIME ( 15, 52, 16.00000000000000000, #233 ) ;
#189 = CARTESIAN_POINT ( 'NONE',  ( 25.39999999999999900, 25.39999999999999100, 0.0000000000000000000 ) ) ;
#190 = VECTOR ( 'NONE', #165, 1000.000000000000000 ) ;
#191 = CARTESIAN_POINT ( 'NONE',  ( -25.39999999999999100, -25.39999999999999100, 0.0000000000000000000 ) ) ;
#192 = CARTESIAN_POINT ( 'NONE',  ( 25.40000000000000600, -25.39999999999998400, 3.000000000000000000 ) ) ;
#193 = VERTEX_POINT ( 'NONE', #3 ) ;
#194 = APPROVAL_STATUS ( 'not_yet_approved' ) ;
#195 = CARTESIAN_POINT ( 'NONE',  ( -25.39999999999999100, -25.39999999999999100, 0.0000000000000000000 ) ) ;
#196 = LINE ( 'NONE', #21, #176 ) ;
#197 = EDGE_CURVE ( 'NONE', #30, #18, #59, .T. ) ;
#198 = FACE_OUTER_BOUND ( 'NONE', #143, .T. ) ;
#199 = CC_DESIGN_DATE_AND_TIME_ASSIGNMENT ( #121, #65, ( #145 ) ) ;
#200 = DIRECTION ( 'NONE',  ( -0.0000000000000000000, -0.0000000000000000000, -1.000000000000000000 ) ) ;
#201 = CARTESIAN_POINT ( 'NONE',  ( 25.39999999999999900, 25.39999999999999100, 0.0000000000000000000 ) ) ;
#202 = ORIENTED_EDGE ( 'NONE', *, *, #197, .T. ) ;
#203 = FACE_OUTER_BOUND ( 'NONE', #6, .T. ) ;
#204 = ORIENTED_EDGE ( 'NONE', *, *, #92, .T. ) ;
#205 = VECTOR ( 'NONE', #116, 1000.000000000000000 ) ;
#206 = EDGE_CURVE ( 'NONE', #100, #18, #125, .T. ) ;
#207 = PRODUCT_DEFINITION_FORMATION_WITH_SPECIFIED_SOURCE ( 'ANY', '', #16, .NOT_KNOWN. ) ;
#208 = LOCAL_TIME ( 15, 52, 16.00000000000000000, #110 ) ;
#209 = PERSON_AND_ORGANIZATION_ROLE ( 'design_owner' ) ;
#210 = VECTOR ( 'NONE', #236, 1000.000000000000000 ) ;
#211 = DIRECTION ( 'NONE',  ( -1.365923996832131600E-016, 1.000000000000000000, 0.0000000000000000000 ) ) ;
#212 = ORIENTED_EDGE ( 'NONE', *, *, #184, .F. ) ;
#213 = CARTESIAN_POINT ( 'NONE',  ( -25.39999999999999900, 25.39999999999999900, 0.0000000000000000000 ) ) ;
#214 = EDGE_CURVE ( 'NONE', #8, #100, #223, .T. ) ;
#215 = APPROVAL ( #49, 'UNSPECIFIED' ) ;
#216 = APPROVAL_PERSON_ORGANIZATION ( #186, #215, #51 ) ;
#217 = LINE ( 'NONE', #158, #187 ) ;
#218 = PLANE ( 'NONE',  #108 ) ;
#219 = LOCAL_TIME ( 15, 52, 16.00000000000000000, #182 ) ;
#220 = ORIENTED_EDGE ( 'NONE', *, *, #206, .F. ) ;
#221 = AXIS2_PLACEMENT_3D ( 'NONE', #171, #47, #36 ) ;
#222 = CALENDAR_DATE ( 2017, 1, 3 ) ;
#223 = LINE ( 'NONE', #44, #181 ) ;
#224 = PERSON_AND_ORGANIZATION ( #38, #173 ) ;
#225 = ORIENTED_EDGE ( 'NONE', *, *, #197, .F. ) ;
#226 = VECTOR ( 'NONE', #22, 1000.000000000000000 ) ;
#227 =( NAMED_UNIT ( * ) PLANE_ANGLE_UNIT ( ) SI_UNIT ( $, .RADIAN. ) );
#228 = CC_DESIGN_APPROVAL ( #215, ( #207 ) ) ;
#229 = COORDINATED_UNIVERSAL_TIME_OFFSET ( 5, 0, .BEHIND. ) ;
#230 = PLANE ( 'NONE',  #39 ) ;
#231 = ORIENTED_EDGE ( 'NONE', *, *, #114, .T. ) ;
#232 = CARTESIAN_POINT ( 'NONE',  ( -25.39999999999999900, 25.39999999999999900, 3.000000000000000000 ) ) ;
#233 = COORDINATED_UNIVERSAL_TIME_OFFSET ( 5, 0, .BEHIND. ) ;
#234 = APPROVAL_PERSON_ORGANIZATION ( #74, #122, #25 ) ;
#235 = MANIFOLD_SOLID_BREP ( 'Boss-Extrude1', #152 ) ;
#236 = DIRECTION ( 'NONE',  ( -1.365923996832132300E-016, 1.000000000000000000, -0.0000000000000000000 ) ) ;
#237 = LINE ( 'NONE', #170, #226 ) ;
ENDSEC;
END-ISO-10303-21;
