ISO-10303-21;
HEADER;
FILE_DESCRIPTION (( 'STEP AP203' ),
    '1' );
FILE_NAME ('Web Model 17562_17562.step',
    '2021-06-03T18:40:40',
    ( '' ),
    ( '' ),
    'SwSTEP 2.0',
    'SolidWorks 2018',
    '' );
FILE_SCHEMA (( 'CONFIG_CONTROL_DESIGN' ));
ENDSEC;

DATA;
#1 = CIRCLE ( 'NONE', #51, 2.460629921259842590 ) ;
#2 = SECURITY_CLASSIFICATION_LEVEL ( 'unclassified' ) ;
#3 = APPROVAL_DATE_TIME ( #35, #107 ) ;
#4 = ORIENTED_EDGE ( 'NONE', *, *, #46, .F. ) ;
#5 = ADVANCED_BREP_SHAPE_REPRESENTATION ( 'Web Model 17562_17562', ( #41, #154 ), #145 ) ;
#6 = DATE_AND_TIME ( #173, #19 ) ;
#7 = AXIS2_PLACEMENT_3D ( 'NONE', #47, #156, #103 ) ;
#8 = CC_DESIGN_PERSON_AND_ORGANIZATION_ASSIGNMENT ( #170, #77, ( #74 ) ) ;
#9 = CALENDAR_DATE ( 2021, 3, 6 ) ;
#10 = APPLICATION_PROTOCOL_DEFINITION ( 'international standard', 'config_control_design', 1994, #40 ) ;
#11 = CARTESIAN_POINT ( 'NONE',  ( -2.460629921259842590, 0.000000000000000000, 0.000000000000000000 ) ) ;
#12 = DIRECTION ( 'NONE',  ( 1.000000000000000000, 0.000000000000000000, 0.000000000000000000 ) ) ;
#13 = FACE_OUTER_BOUND ( 'NONE', #37, .T. ) ;
#14 = UNCERTAINTY_MEASURE_WITH_UNIT (LENGTH_MEASURE( 1.000000000000000082E-05 ), #73, 'distance_accuracy_value', 'NONE');
#15 = CARTESIAN_POINT ( 'NONE',  ( -2.460629921259842590, 0.000000000000000000, 0.2362204724409449064 ) ) ;
#16 = DIRECTION ( 'NONE',  ( 0.000000000000000000, 0.000000000000000000, 1.000000000000000000 ) ) ;
#17 = APPROVAL_ROLE ( '' ) ;
#18 = PRODUCT_DEFINITION_SHAPE ( 'NONE', 'NONE',  #70 ) ;
#19 = LOCAL_TIME ( 14, 40, 40.00000000000000000, #21 ) ;
#20 = ORGANIZATION ( 'UNSPECIFIED', 'UNSPECIFIED', '' ) ;
#21 = COORDINATED_UNIVERSAL_TIME_OFFSET ( 5, 0, .BEHIND. ) ;
#22 = CC_DESIGN_SECURITY_CLASSIFICATION ( #74, ( #97 ) ) ;
#23 = SHAPE_DEFINITION_REPRESENTATION ( #18, #5 ) ;
#24 = CC_DESIGN_APPROVAL ( #107, ( #97 ) ) ;
#25 = CLOSED_SHELL ( 'NONE', ( #36, #50, #134, #95 ) ) ;
#26 = DIRECTION ( 'NONE',  ( 0.000000000000000000, 0.000000000000000000, 1.000000000000000000 ) ) ;
#27 = APPROVAL_PERSON_ORGANIZATION ( #81, #107, #31 ) ;
#28 = VERTEX_POINT ( 'NONE', #147 ) ;
#29 = CARTESIAN_POINT ( 'NONE',  ( 0.000000000000000000, 0.000000000000000000, 0.2362204724409449064 ) ) ;
#30 = CARTESIAN_POINT ( 'NONE',  ( 0.000000000000000000, 0.000000000000000000, 0.2362204724409449064 ) ) ;
#31 = APPROVAL_ROLE ( '' ) ;
#32 = PERSON_AND_ORGANIZATION ( #169, #20 ) ;
#33 = ORIENTED_EDGE ( 'NONE', *, *, #85, .F. ) ;
#34 = EDGE_CURVE ( 'NONE', #125, #79, #132, .T. ) ;
#35 = DATE_AND_TIME ( #131, #161 ) ;
#36 = ADVANCED_FACE ( 'NONE', ( #175 ), #53, .T. ) ;
#37 = EDGE_LOOP ( 'NONE', ( #135, #106 ) ) ;
#38 = PRODUCT_RELATED_PRODUCT_CATEGORY ( 'detail', '', ( #52 ) ) ;
#39 = COORDINATED_UNIVERSAL_TIME_OFFSET ( 5, 0, .BEHIND. ) ;
#40 = APPLICATION_CONTEXT ( 'configuration controlled 3d designs of mechanical parts and assemblies' ) ;
#41 = MANIFOLD_SOLID_BREP ( 'Boss-Extrude1', #25 ) ;
#42 = DIRECTION ( 'NONE',  ( -0.000000000000000000, -0.000000000000000000, -1.000000000000000000 ) ) ;
#43 = CC_DESIGN_PERSON_AND_ORGANIZATION_ASSIGNMENT ( #128, #130, ( #97 ) ) ;
#44 = DIRECTION ( 'NONE',  ( 1.000000000000000000, 0.000000000000000000, 0.000000000000000000 ) ) ;
#45 = FACE_OUTER_BOUND ( 'NONE', #54, .T. ) ;
#46 = EDGE_CURVE ( 'NONE', #79, #28, #67, .T. ) ;
#47 = CARTESIAN_POINT ( 'NONE',  ( 0.000000000000000000, 0.000000000000000000, 0.2362204724409449064 ) ) ;
#48 = PERSON_AND_ORGANIZATION ( #169, #20 ) ;
#49 = APPROVAL_STATUS ( 'not_yet_approved' ) ;
#50 = ADVANCED_FACE ( 'NONE', ( #138 ), #96, .T. ) ;
#51 = AXIS2_PLACEMENT_3D ( 'NONE', #123, #59, #142 ) ;
#52 = PRODUCT ( 'Web Model 17562_17562', 'Web Model 17562_17562', '', ( #104 ) ) ;
#53 = CYLINDRICAL_SURFACE ( 'NONE', #112, 2.460629921259842590 ) ;
#54 = EDGE_LOOP ( 'NONE', ( #64, #111 ) ) ;
#55 = EDGE_CURVE ( 'NONE', #79, #125, #159, .T. ) ;
#56 = PERSON_AND_ORGANIZATION ( #169, #20 ) ;
#57 = DIRECTION ( 'NONE',  ( 1.000000000000000000, 0.000000000000000000, -0.000000000000000000 ) ) ;
#58 = ORIENTED_EDGE ( 'NONE', *, *, #76, .T. ) ;
#59 = DIRECTION ( 'NONE',  ( 0.000000000000000000, 0.000000000000000000, 1.000000000000000000 ) ) ;
#60 = CC_DESIGN_DATE_AND_TIME_ASSIGNMENT ( #137, #63, ( #74 ) ) ;
#61 = PLANE ( 'NONE',  #82 ) ;
#62 =( NAMED_UNIT ( * ) PLANE_ANGLE_UNIT ( ) SI_UNIT ( $, .RADIAN. ) );
#63 = DATE_TIME_ROLE ( 'classification_date' ) ;
#64 = ORIENTED_EDGE ( 'NONE', *, *, #76, .F. ) ;
#65 = CARTESIAN_POINT ( 'NONE',  ( 0.000000000000000000, 0.000000000000000000, 0.2362204724409449064 ) ) ;
#66 = CALENDAR_DATE ( 2021, 3, 6 ) ;
#67 = LINE ( 'NONE', #163, #68 ) ;
#68 = VECTOR ( 'NONE', #42, 39.37007874015748143 ) ;
#69 = CIRCLE ( 'NONE', #148, 2.460629921259842590 ) ;
#70 = PRODUCT_DEFINITION ( 'UNKNOWN', '', #97, #149 ) ;
#71 = APPLICATION_PROTOCOL_DEFINITION ( 'international standard', 'config_control_design', 1994, #174 ) ;
#72 = APPROVAL_PERSON_ORGANIZATION ( #158, #80, #109 ) ;
#73 =( CONVERSION_BASED_UNIT ( 'INCH', #110 ) LENGTH_UNIT ( ) NAMED_UNIT ( #91 ) );
#74 = SECURITY_CLASSIFICATION ( '', '', #2 ) ;
#75 = DIRECTION ( 'NONE',  ( 0.000000000000000000, 0.000000000000000000, 1.000000000000000000 ) ) ;
#76 = EDGE_CURVE ( 'NONE', #150, #28, #69, .T. ) ;
#77 = PERSON_AND_ORGANIZATION_ROLE ( 'classification_officer' ) ;
#78 = LINE ( 'NONE', #15, #90 ) ;
#79 = VERTEX_POINT ( 'NONE', #89 ) ;
#80 = APPROVAL ( #100, 'UNSPECIFIED' ) ;
#81 = PERSON_AND_ORGANIZATION ( #169, #20 ) ;
#82 = AXIS2_PLACEMENT_3D ( 'NONE', #30, #75, #57 ) ;
#83 = CC_DESIGN_DATE_AND_TIME_ASSIGNMENT ( #115, #176, ( #70 ) ) ;
#84 = PERSON_AND_ORGANIZATION_ROLE ( 'creator' ) ;
#85 = EDGE_CURVE ( 'NONE', #125, #150, #78, .T. ) ;
#86 = CC_DESIGN_APPROVAL ( #80, ( #70 ) ) ;
#87 = CARTESIAN_POINT ( 'NONE',  ( -2.460629921259842590, 0.000000000000000000, 0.2362204724409449064 ) ) ;
#88 = APPROVAL ( #49, 'UNSPECIFIED' ) ;
#89 = CARTESIAN_POINT ( 'NONE',  ( 2.460629921259842590, 3.013402556957070180E-16, 0.2362204724409449064 ) ) ;
#90 = VECTOR ( 'NONE', #113, 39.37007874015748143 ) ;
#91 = DIMENSIONAL_EXPONENTS ( 1.000000000000000000, 0.000000000000000000, 0.000000000000000000, 0.000000000000000000, 0.000000000000000000, 0.000000000000000000, 0.000000000000000000 ) ;
#92 = AXIS2_PLACEMENT_3D ( 'NONE', #29, #26, #12 ) ;
#93 = CALENDAR_DATE ( 2021, 3, 6 ) ;
#94 = AXIS2_PLACEMENT_3D ( 'NONE', #143, #114, #144 ) ;
#95 = ADVANCED_FACE ( 'NONE', ( #45 ), #124, .F. ) ;
#96 = CYLINDRICAL_SURFACE ( 'NONE', #7, 2.460629921259842590 ) ;
#97 = PRODUCT_DEFINITION_FORMATION_WITH_SPECIFIED_SOURCE ( 'ANY', '', #52, .NOT_KNOWN. ) ;
#98 = ORIENTED_EDGE ( 'NONE', *, *, #55, .F. ) ;
#99 = EDGE_CURVE ( 'NONE', #28, #150, #1, .T. ) ;
#100 = APPROVAL_STATUS ( 'not_yet_approved' ) ;
#101 =( LENGTH_UNIT ( ) NAMED_UNIT ( * ) SI_UNIT ( $, .METRE. ) );
#102 = APPROVAL_PERSON_ORGANIZATION ( #165, #88, #17 ) ;
#103 = DIRECTION ( 'NONE',  ( -1.000000000000000000, 0.000000000000000000, 0.000000000000000000 ) ) ;
#104 = MECHANICAL_CONTEXT ( 'NONE', #40, 'mechanical' ) ;
#105 = LOCAL_TIME ( 14, 40, 40.00000000000000000, #141 ) ;
#106 = ORIENTED_EDGE ( 'NONE', *, *, #55, .T. ) ;
#107 = APPROVAL ( #119, 'UNSPECIFIED' ) ;
#108 = CC_DESIGN_APPROVAL ( #88, ( #74 ) ) ;
#109 = APPROVAL_ROLE ( '' ) ;
#110 = LENGTH_MEASURE_WITH_UNIT ( LENGTH_MEASURE( 0.02539999999999999897 ), #101 );
#111 = ORIENTED_EDGE ( 'NONE', *, *, #99, .F. ) ;
#112 = AXIS2_PLACEMENT_3D ( 'NONE', #65, #118, #129 ) ;
#113 = DIRECTION ( 'NONE',  ( -0.000000000000000000, -0.000000000000000000, -1.000000000000000000 ) ) ;
#114 = DIRECTION ( 'NONE',  ( 0.000000000000000000, 0.000000000000000000, 1.000000000000000000 ) ) ;
#115 = DATE_AND_TIME ( #9, #105 ) ;
#116 = DIRECTION ( 'NONE',  ( 0.000000000000000000, 0.000000000000000000, 1.000000000000000000 ) ) ;
#117 = LOCAL_TIME ( 14, 40, 40.00000000000000000, #122 ) ;
#118 = DIRECTION ( 'NONE',  ( -0.000000000000000000, -0.000000000000000000, -1.000000000000000000 ) ) ;
#119 = APPROVAL_STATUS ( 'not_yet_approved' ) ;
#120 = DATE_AND_TIME ( #66, #152 ) ;
#121 = ORIENTED_EDGE ( 'NONE', *, *, #46, .T. ) ;
#122 = COORDINATED_UNIVERSAL_TIME_OFFSET ( 5, 0, .BEHIND. ) ;
#123 = CARTESIAN_POINT ( 'NONE',  ( 0.000000000000000000, 0.000000000000000000, 0.000000000000000000 ) ) ;
#124 = PLANE ( 'NONE',  #94 ) ;
#125 = VERTEX_POINT ( 'NONE', #87 ) ;
#126 = PERSON_AND_ORGANIZATION_ROLE ( 'design_owner' ) ;
#127 = PERSON_AND_ORGANIZATION_ROLE ( 'creator' ) ;
#128 = PERSON_AND_ORGANIZATION ( #169, #20 ) ;
#129 = DIRECTION ( 'NONE',  ( -1.000000000000000000, 0.000000000000000000, 0.000000000000000000 ) ) ;
#130 = PERSON_AND_ORGANIZATION_ROLE ( 'design_supplier' ) ;
#131 = CALENDAR_DATE ( 2021, 3, 6 ) ;
#132 = CIRCLE ( 'NONE', #92, 2.460629921259842590 ) ;
#133 = CC_DESIGN_PERSON_AND_ORGANIZATION_ASSIGNMENT ( #32, #84, ( #70 ) ) ;
#134 = ADVANCED_FACE ( 'NONE', ( #13 ), #61, .T. ) ;
#135 = ORIENTED_EDGE ( 'NONE', *, *, #34, .T. ) ;
#136 = AXIS2_PLACEMENT_3D ( 'NONE', #155, #164, #140 ) ;
#137 = DATE_AND_TIME ( #93, #117 ) ;
#138 = FACE_OUTER_BOUND ( 'NONE', #168, .T. ) ;
#139 = ORIENTED_EDGE ( 'NONE', *, *, #34, .F. ) ;
#140 = DIRECTION ( 'NONE',  ( 1.000000000000000000, 0.000000000000000000, 0.000000000000000000 ) ) ;
#141 = COORDINATED_UNIVERSAL_TIME_OFFSET ( 5, 0, .BEHIND. ) ;
#142 = DIRECTION ( 'NONE',  ( 1.000000000000000000, 0.000000000000000000, 0.000000000000000000 ) ) ;
#143 = CARTESIAN_POINT ( 'NONE',  ( 0.000000000000000000, 0.000000000000000000, 0.000000000000000000 ) ) ;
#144 = DIRECTION ( 'NONE',  ( 1.000000000000000000, 0.000000000000000000, -0.000000000000000000 ) ) ;
#145 =( GEOMETRIC_REPRESENTATION_CONTEXT ( 3 ) GLOBAL_UNCERTAINTY_ASSIGNED_CONTEXT ( ( #14 ) ) GLOBAL_UNIT_ASSIGNED_CONTEXT ( ( #73, #62, #162 ) ) REPRESENTATION_CONTEXT ( 'NONE', 'WORKASPACE' ) );
#146 = ORIENTED_EDGE ( 'NONE', *, *, #99, .T. ) ;
#147 = CARTESIAN_POINT ( 'NONE',  ( 2.460629921259842590, 3.013402556957070180E-16, 0.000000000000000000 ) ) ;
#148 = AXIS2_PLACEMENT_3D ( 'NONE', #167, #16, #44 ) ;
#149 = DESIGN_CONTEXT ( 'detailed design', #174, 'design' ) ;
#150 = VERTEX_POINT ( 'NONE', #11 ) ;
#151 = CC_DESIGN_PERSON_AND_ORGANIZATION_ASSIGNMENT ( #48, #126, ( #52 ) ) ;
#152 = LOCAL_TIME ( 14, 40, 40.00000000000000000, #39 ) ;
#153 = APPROVAL_DATE_TIME ( #6, #80 ) ;
#154 = AXIS2_PLACEMENT_3D ( 'NONE', #178, #116, #177 ) ;
#155 = CARTESIAN_POINT ( 'NONE',  ( 0.000000000000000000, 0.000000000000000000, 0.2362204724409449064 ) ) ;
#156 = DIRECTION ( 'NONE',  ( -0.000000000000000000, -0.000000000000000000, -1.000000000000000000 ) ) ;
#157 = COORDINATED_UNIVERSAL_TIME_OFFSET ( 5, 0, .BEHIND. ) ;
#158 = PERSON_AND_ORGANIZATION ( #169, #20 ) ;
#159 = CIRCLE ( 'NONE', #136, 2.460629921259842590 ) ;
#160 = APPROVAL_DATE_TIME ( #120, #88 ) ;
#161 = LOCAL_TIME ( 14, 40, 40.00000000000000000, #157 ) ;
#162 =( NAMED_UNIT ( * ) SI_UNIT ( $, .STERADIAN. ) SOLID_ANGLE_UNIT ( ) );
#163 = CARTESIAN_POINT ( 'NONE',  ( 2.460629921259842590, 3.013402556957070180E-16, 0.2362204724409449064 ) ) ;
#164 = DIRECTION ( 'NONE',  ( 0.000000000000000000, 0.000000000000000000, 1.000000000000000000 ) ) ;
#165 = PERSON_AND_ORGANIZATION ( #169, #20 ) ;
#166 = EDGE_LOOP ( 'NONE', ( #98, #121, #146, #33 ) ) ;
#167 = CARTESIAN_POINT ( 'NONE',  ( 0.000000000000000000, 0.000000000000000000, 0.000000000000000000 ) ) ;
#168 = EDGE_LOOP ( 'NONE', ( #4, #139, #171, #58 ) ) ;
#169 = PERSON ( 'UNSPECIFIED', 'UNSPECIFIED', 'UNSPECIFIED', ('UNSPECIFIED'), ('UNSPECIFIED'), ('UNSPECIFIED') ) ;
#170 = PERSON_AND_ORGANIZATION ( #169, #20 ) ;
#171 = ORIENTED_EDGE ( 'NONE', *, *, #85, .T. ) ;
#172 = CC_DESIGN_PERSON_AND_ORGANIZATION_ASSIGNMENT ( #56, #127, ( #97 ) ) ;
#173 = CALENDAR_DATE ( 2021, 3, 6 ) ;
#174 = APPLICATION_CONTEXT ( 'configuration controlled 3d designs of mechanical parts and assemblies' ) ;
#175 = FACE_OUTER_BOUND ( 'NONE', #166, .T. ) ;
#176 = DATE_TIME_ROLE ( 'creation_date' ) ;
#177 = DIRECTION ( 'NONE',  ( 1.000000000000000000, 0.000000000000000000, 0.000000000000000000 ) ) ;
#178 = CARTESIAN_POINT ( 'NONE',  ( 0.000000000000000000, 0.000000000000000000, 0.000000000000000000 ) ) ;
ENDSEC;
END-ISO-10303-21;
