ISO-10303-21;
HEADER;
FILE_DESCRIPTION (( 'STEP AP203' ),
    '1' );
FILE_NAME ('Web Model 49155_49156.step',
    '2017-04-19T17:04:24',
    ( '' ),
    ( '' ),
    'SwSTEP 2.0',
    'SolidWorks 2016',
    '' );
FILE_SCHEMA (( 'CONFIG_CONTROL_DESIGN' ));
ENDSEC;

DATA;
#1 = VECTOR ( 'NONE', #33, 1000.000000000000000 ) ;
#2 = VERTEX_POINT ( 'NONE', #116 ) ;
#3 = ADVANCED_FACE ( 'NONE', ( #175 ), #138, .T. ) ;
#4 = DIRECTION ( 'NONE',  ( 1.000000000000000000, 0.0000000000000000000, 0.0000000000000000000 ) ) ;
#5 = ORIENTED_EDGE ( 'NONE', *, *, #146, .F. ) ;
#6 = CARTESIAN_POINT ( 'NONE',  ( 0.0000000000000000000, 0.0000000000000000000, 0.8000000000000000400 ) ) ;
#7 = AXIS2_PLACEMENT_3D ( 'NONE', #166, #87, #132 ) ;
#8 = COORDINATED_UNIVERSAL_TIME_OFFSET ( 5, 0, .BEHIND. ) ;
#9 = DIRECTION ( 'NONE',  ( 1.000000000000000000, 0.0000000000000000000, -0.0000000000000000000 ) ) ;
#10 = DATE_TIME_ROLE ( 'classification_date' ) ;
#11 = LOCAL_TIME ( 13, 4, 24.00000000000000000, #78 ) ;
#12 = UNCERTAINTY_MEASURE_WITH_UNIT (LENGTH_MEASURE( 1.000000000000000100E-005 ), #129, 'distance_accuracy_value', 'NONE');
#13 = FACE_OUTER_BOUND ( 'NONE', #43, .T. ) ;
#14 = EDGE_CURVE ( 'NONE', #69, #125, #31, .T. ) ;
#15 = EDGE_LOOP ( 'NONE', ( #139, #82, #126, #5 ) ) ;
#16 = EDGE_CURVE ( 'NONE', #96, #2, #55, .T. ) ;
#17 = CLOSED_SHELL ( 'NONE', ( #3, #58, #163, #112 ) ) ;
#18 = DIRECTION ( 'NONE',  ( 0.0000000000000000000, 0.0000000000000000000, 1.000000000000000000 ) ) ;
#19 = EDGE_CURVE ( 'NONE', #96, #69, #160, .T. ) ;
#20 = APPROVAL_PERSON_ORGANIZATION ( #86, #29, #61 ) ;
#21 = CARTESIAN_POINT ( 'NONE',  ( -7.500000000000000000, 0.0000000000000000000, -0.8000000000000000400 ) ) ;
#22 = APPLICATION_PROTOCOL_DEFINITION ( 'international standard', 'config_control_design', 1994, #72 ) ;
#23 = DIRECTION ( 'NONE',  ( 0.0000000000000000000, 0.0000000000000000000, 1.000000000000000000 ) ) ;
#24 = COORDINATED_UNIVERSAL_TIME_OFFSET ( 5, 0, .BEHIND. ) ;
#25 = EDGE_CURVE ( 'NONE', #2, #96, #68, .T. ) ;
#26 = DIRECTION ( 'NONE',  ( 1.000000000000000000, 0.0000000000000000000, 0.0000000000000000000 ) ) ;
#27 = APPROVAL_PERSON_ORGANIZATION ( #92, #161, #159 ) ;
#28 = EDGE_CURVE ( 'NONE', #125, #69, #109, .T. ) ;
#29 = APPROVAL ( #141, 'UNSPECIFIED' ) ;
#30 = SHAPE_DEFINITION_REPRESENTATION ( #128, #165 ) ;
#31 = CIRCLE ( 'NONE', #49, 7.500000000000000000 ) ;
#32 = ORIENTED_EDGE ( 'NONE', *, *, #14, .F. ) ;
#33 = DIRECTION ( 'NONE',  ( -0.0000000000000000000, -0.0000000000000000000, -1.000000000000000000 ) ) ;
#34 = APPROVAL_DATE_TIME ( #99, #29 ) ;
#35 = DIRECTION ( 'NONE',  ( 0.0000000000000000000, 0.0000000000000000000, 1.000000000000000000 ) ) ;
#36 = CC_DESIGN_PERSON_AND_ORGANIZATION_ASSIGNMENT ( #145, #151, ( #121 ) ) ;
#37 = PERSON_AND_ORGANIZATION_ROLE ( 'design_supplier' ) ;
#38 = DIRECTION ( 'NONE',  ( -1.000000000000000000, 0.0000000000000000000, 0.0000000000000000000 ) ) ;
#39 = PERSON_AND_ORGANIZATION ( #79, #93 ) ;
#40 = CC_DESIGN_SECURITY_CLASSIFICATION ( #105, ( #88 ) ) ;
#41 = APPROVAL_DATE_TIME ( #107, #161 ) ;
#42 = VECTOR ( 'NONE', #134, 1000.000000000000000 ) ;
#43 = EDGE_LOOP ( 'NONE', ( #162, #83 ) ) ;
#44 = ORIENTED_EDGE ( 'NONE', *, *, #28, .T. ) ;
#45 = MANIFOLD_SOLID_BREP ( 'Boss-Extrude1', #17 ) ;
#46 = CC_DESIGN_DATE_AND_TIME_ASSIGNMENT ( #54, #171, ( #121 ) ) ;
#47 = CC_DESIGN_APPROVAL ( #29, ( #105 ) ) ;
#48 = APPROVAL_STATUS ( 'not_yet_approved' ) ;
#49 = AXIS2_PLACEMENT_3D ( 'NONE', #102, #101, #152 ) ;
#50 = CALENDAR_DATE ( 2017, 19, 4 ) ;
#51 = DIRECTION ( 'NONE',  ( -0.0000000000000000000, -0.0000000000000000000, -1.000000000000000000 ) ) ;
#52 = CARTESIAN_POINT ( 'NONE',  ( 0.0000000000000000000, 0.0000000000000000000, -0.8000000000000000400 ) ) ;
#53 = PLANE ( 'NONE',  #106 ) ;
#54 = DATE_AND_TIME ( #118, #11 ) ;
#55 = CIRCLE ( 'NONE', #56, 7.500000000000000000 ) ;
#56 = AXIS2_PLACEMENT_3D ( 'NONE', #6, #113, #4 ) ;
#57 = ORIENTED_EDGE ( 'NONE', *, *, #25, .F. ) ;
#58 = ADVANCED_FACE ( 'NONE', ( #147 ), #123, .T. ) ;
#59 =( NAMED_UNIT ( * ) SI_UNIT ( $, .STERADIAN. ) SOLID_ANGLE_UNIT ( ) );
#60 = LOCAL_TIME ( 13, 4, 24.00000000000000000, #130 ) ;
#61 = APPROVAL_ROLE ( '' ) ;
#62 = PLANE ( 'NONE',  #157 ) ;
#63 = CALENDAR_DATE ( 2017, 19, 4 ) ;
#64 = LOCAL_TIME ( 13, 4, 24.00000000000000000, #137 ) ;
#65 = CC_DESIGN_DATE_AND_TIME_ASSIGNMENT ( #153, #10, ( #105 ) ) ;
#66 = PRODUCT ( 'Web Model 49155_49156', 'Web Model 49155_49156', '', ( #73 ) ) ;
#67 =( GEOMETRIC_REPRESENTATION_CONTEXT ( 3 ) GLOBAL_UNCERTAINTY_ASSIGNED_CONTEXT ( ( #12 ) ) GLOBAL_UNIT_ASSIGNED_CONTEXT ( ( #129, #169, #59 ) ) REPRESENTATION_CONTEXT ( 'NONE', 'WORKASPACE' ) );
#68 = CIRCLE ( 'NONE', #131, 7.500000000000000000 ) ;
#69 = VERTEX_POINT ( 'NONE', #154 ) ;
#70 = EDGE_LOOP ( 'NONE', ( #148, #32 ) ) ;
#71 = ORIENTED_EDGE ( 'NONE', *, *, #146, .T. ) ;
#72 = APPLICATION_CONTEXT ( 'configuration controlled 3d designs of mechanical parts and assemblies' ) ;
#73 = MECHANICAL_CONTEXT ( 'NONE', #72, 'mechanical' ) ;
#74 = CC_DESIGN_PERSON_AND_ORGANIZATION_ASSIGNMENT ( #158, #173, ( #66 ) ) ;
#75 = CARTESIAN_POINT ( 'NONE',  ( 7.500000000000000000, 9.184850993605147900E-016, 0.8000000000000000400 ) ) ;
#76 = PERSON_AND_ORGANIZATION ( #79, #93 ) ;
#77 = CC_DESIGN_PERSON_AND_ORGANIZATION_ASSIGNMENT ( #39, #119, ( #88 ) ) ;
#78 = COORDINATED_UNIVERSAL_TIME_OFFSET ( 5, 0, .BEHIND. ) ;
#79 = PERSON ( 'UNSPECIFIED', 'UNSPECIFIED', 'UNSPECIFIED', ('UNSPECIFIED'), ('UNSPECIFIED'), ('UNSPECIFIED') ) ;
#80 = LINE ( 'NONE', #156, #42 ) ;
#81 = AXIS2_PLACEMENT_3D ( 'NONE', #150, #18, #98 ) ;
#82 = ORIENTED_EDGE ( 'NONE', *, *, #19, .T. ) ;
#83 = ORIENTED_EDGE ( 'NONE', *, *, #16, .T. ) ;
#84 = CC_DESIGN_APPROVAL ( #117, ( #88 ) ) ;
#85 = DIRECTION ( 'NONE',  ( 0.0000000000000000000, 0.0000000000000000000, 1.000000000000000000 ) ) ;
#86 = PERSON_AND_ORGANIZATION ( #79, #93 ) ;
#87 = DIRECTION ( 'NONE',  ( -0.0000000000000000000, -0.0000000000000000000, -1.000000000000000000 ) ) ;
#88 = PRODUCT_DEFINITION_FORMATION_WITH_SPECIFIED_SOURCE ( 'ANY', '', #66, .NOT_KNOWN. ) ;
#89 = DIRECTION ( 'NONE',  ( 1.000000000000000000, 0.0000000000000000000, 0.0000000000000000000 ) ) ;
#90 = AXIS2_PLACEMENT_3D ( 'NONE', #133, #51, #38 ) ;
#91 = APPROVAL_PERSON_ORGANIZATION ( #155, #117, #120 ) ;
#92 = PERSON_AND_ORGANIZATION ( #79, #93 ) ;
#93 = ORGANIZATION ( 'UNSPECIFIED', 'UNSPECIFIED', '' ) ;
#94 = CC_DESIGN_PERSON_AND_ORGANIZATION_ASSIGNMENT ( #143, #37, ( #88 ) ) ;
#95 = FACE_OUTER_BOUND ( 'NONE', #70, .T. ) ;
#96 = VERTEX_POINT ( 'NONE', #75 ) ;
#97 = PRODUCT_RELATED_PRODUCT_CATEGORY ( 'detail', '', ( #66 ) ) ;
#98 = DIRECTION ( 'NONE',  ( 1.000000000000000000, 0.0000000000000000000, 0.0000000000000000000 ) ) ;
#99 = DATE_AND_TIME ( #164, #60 ) ;
#100 = APPLICATION_CONTEXT ( 'configuration controlled 3d designs of mechanical parts and assemblies' ) ;
#101 = DIRECTION ( 'NONE',  ( 0.0000000000000000000, 0.0000000000000000000, 1.000000000000000000 ) ) ;
#102 = CARTESIAN_POINT ( 'NONE',  ( 0.0000000000000000000, 0.0000000000000000000, -0.8000000000000000400 ) ) ;
#103 = APPROVAL_DATE_TIME ( #170, #117 ) ;
#104 = DIRECTION ( 'NONE',  ( 1.000000000000000000, 0.0000000000000000000, -0.0000000000000000000 ) ) ;
#105 = SECURITY_CLASSIFICATION ( '', '', #167 ) ;
#106 = AXIS2_PLACEMENT_3D ( 'NONE', #127, #85, #9 ) ;
#107 = DATE_AND_TIME ( #172, #64 ) ;
#108 = PERSON_AND_ORGANIZATION_ROLE ( 'classification_officer' ) ;
#109 = CIRCLE ( 'NONE', #81, 7.500000000000000000 ) ;
#110 = AXIS2_PLACEMENT_3D ( 'NONE', #140, #23, #26 ) ;
#111 = ORIENTED_EDGE ( 'NONE', *, *, #19, .F. ) ;
#112 = ADVANCED_FACE ( 'NONE', ( #95 ), #62, .F. ) ;
#113 = DIRECTION ( 'NONE',  ( 0.0000000000000000000, 0.0000000000000000000, 1.000000000000000000 ) ) ;
#114 = LOCAL_TIME ( 13, 4, 24.00000000000000000, #8 ) ;
#115 = APPLICATION_PROTOCOL_DEFINITION ( 'international standard', 'config_control_design', 1994, #100 ) ;
#116 = CARTESIAN_POINT ( 'NONE',  ( -7.500000000000000000, 0.0000000000000000000, 0.8000000000000000400 ) ) ;
#117 = APPROVAL ( #122, 'UNSPECIFIED' ) ;
#118 = CALENDAR_DATE ( 2017, 19, 4 ) ;
#119 = PERSON_AND_ORGANIZATION_ROLE ( 'creator' ) ;
#120 = APPROVAL_ROLE ( '' ) ;
#121 = PRODUCT_DEFINITION ( 'UNKNOWN', '', #88, #168 ) ;
#122 = APPROVAL_STATUS ( 'not_yet_approved' ) ;
#123 = CYLINDRICAL_SURFACE ( 'NONE', #90, 7.500000000000000000 ) ;
#124 = CC_DESIGN_PERSON_AND_ORGANIZATION_ASSIGNMENT ( #76, #108, ( #105 ) ) ;
#125 = VERTEX_POINT ( 'NONE', #21 ) ;
#126 = ORIENTED_EDGE ( 'NONE', *, *, #14, .T. ) ;
#127 = CARTESIAN_POINT ( 'NONE',  ( 0.0000000000000000000, 0.0000000000000000000, 0.8000000000000000400 ) ) ;
#128 = PRODUCT_DEFINITION_SHAPE ( 'NONE', 'NONE',  #121 ) ;
#129 =( LENGTH_UNIT ( ) NAMED_UNIT ( * ) SI_UNIT ( .MILLI., .METRE. ) );
#130 = COORDINATED_UNIVERSAL_TIME_OFFSET ( 5, 0, .BEHIND. ) ;
#131 = AXIS2_PLACEMENT_3D ( 'NONE', #142, #35, #89 ) ;
#132 = DIRECTION ( 'NONE',  ( -1.000000000000000000, 0.0000000000000000000, 0.0000000000000000000 ) ) ;
#133 = CARTESIAN_POINT ( 'NONE',  ( 0.0000000000000000000, 0.0000000000000000000, 0.8000000000000000400 ) ) ;
#134 = DIRECTION ( 'NONE',  ( -0.0000000000000000000, -0.0000000000000000000, -1.000000000000000000 ) ) ;
#135 = LOCAL_TIME ( 13, 4, 24.00000000000000000, #24 ) ;
#136 = DIRECTION ( 'NONE',  ( 0.0000000000000000000, 0.0000000000000000000, 1.000000000000000000 ) ) ;
#137 = COORDINATED_UNIVERSAL_TIME_OFFSET ( 5, 0, .BEHIND. ) ;
#138 = CYLINDRICAL_SURFACE ( 'NONE', #7, 7.500000000000000000 ) ;
#139 = ORIENTED_EDGE ( 'NONE', *, *, #16, .F. ) ;
#140 = CARTESIAN_POINT ( 'NONE',  ( 0.0000000000000000000, 0.0000000000000000000, 0.0000000000000000000 ) ) ;
#141 = APPROVAL_STATUS ( 'not_yet_approved' ) ;
#142 = CARTESIAN_POINT ( 'NONE',  ( 0.0000000000000000000, 0.0000000000000000000, 0.8000000000000000400 ) ) ;
#143 = PERSON_AND_ORGANIZATION ( #79, #93 ) ;
#144 = CARTESIAN_POINT ( 'NONE',  ( 7.500000000000000000, 9.184850993605147900E-016, 0.8000000000000000400 ) ) ;
#145 = PERSON_AND_ORGANIZATION ( #79, #93 ) ;
#146 = EDGE_CURVE ( 'NONE', #2, #125, #80, .T. ) ;
#147 = FACE_OUTER_BOUND ( 'NONE', #149, .T. ) ;
#148 = ORIENTED_EDGE ( 'NONE', *, *, #28, .F. ) ;
#149 = EDGE_LOOP ( 'NONE', ( #111, #57, #71, #44 ) ) ;
#150 = CARTESIAN_POINT ( 'NONE',  ( 0.0000000000000000000, 0.0000000000000000000, -0.8000000000000000400 ) ) ;
#151 = PERSON_AND_ORGANIZATION_ROLE ( 'creator' ) ;
#152 = DIRECTION ( 'NONE',  ( 1.000000000000000000, 0.0000000000000000000, 0.0000000000000000000 ) ) ;
#153 = DATE_AND_TIME ( #50, #114 ) ;
#154 = CARTESIAN_POINT ( 'NONE',  ( 7.500000000000000000, 9.184850993605147900E-016, -0.8000000000000000400 ) ) ;
#155 = PERSON_AND_ORGANIZATION ( #79, #93 ) ;
#156 = CARTESIAN_POINT ( 'NONE',  ( -7.500000000000000000, 0.0000000000000000000, 0.8000000000000000400 ) ) ;
#157 = AXIS2_PLACEMENT_3D ( 'NONE', #52, #136, #104 ) ;
#158 = PERSON_AND_ORGANIZATION ( #79, #93 ) ;
#159 = APPROVAL_ROLE ( '' ) ;
#160 = LINE ( 'NONE', #144, #1 ) ;
#161 = APPROVAL ( #48, 'UNSPECIFIED' ) ;
#162 = ORIENTED_EDGE ( 'NONE', *, *, #25, .T. ) ;
#163 = ADVANCED_FACE ( 'NONE', ( #13 ), #53, .T. ) ;
#164 = CALENDAR_DATE ( 2017, 19, 4 ) ;
#165 = ADVANCED_BREP_SHAPE_REPRESENTATION ( 'Web Model 49155_49156', ( #45, #110 ), #67 ) ;
#166 = CARTESIAN_POINT ( 'NONE',  ( 0.0000000000000000000, 0.0000000000000000000, 0.8000000000000000400 ) ) ;
#167 = SECURITY_CLASSIFICATION_LEVEL ( 'unclassified' ) ;
#168 = DESIGN_CONTEXT ( 'detailed design', #100, 'design' ) ;
#169 =( NAMED_UNIT ( * ) PLANE_ANGLE_UNIT ( ) SI_UNIT ( $, .RADIAN. ) );
#170 = DATE_AND_TIME ( #63, #135 ) ;
#171 = DATE_TIME_ROLE ( 'creation_date' ) ;
#172 = CALENDAR_DATE ( 2017, 19, 4 ) ;
#173 = PERSON_AND_ORGANIZATION_ROLE ( 'design_owner' ) ;
#174 = CC_DESIGN_APPROVAL ( #161, ( #121 ) ) ;
#175 = FACE_OUTER_BOUND ( 'NONE', #15, .T. ) ;
ENDSEC;
END-ISO-10303-21;
