ISO-10303-21;
HEADER;
FILE_DESCRIPTION (( 'STEP AP203' ),
    '1' );
FILE_NAME ('Web Model 14957_18335.step',
    '2021-06-28T14:36:38',
    ( '' ),
    ( '' ),
    'SwSTEP 2.0',
    'SolidWorks 2018',
    '' );
FILE_SCHEMA (( 'CONFIG_CONTROL_DESIGN' ));
ENDSEC;

DATA;
#1 = CALENDAR_DATE ( 2021, 28, 6 ) ;
#2 = EDGE_CURVE ( 'NONE', #89, #83, #11, .T. ) ;
#3 = DIRECTION ( 'NONE',  ( 1.000000000000000000, 0.000000000000000000, 0.000000000000000000 ) ) ;
#4 = COORDINATED_UNIVERSAL_TIME_OFFSET ( 5, 0, .BEHIND. ) ;
#5 = DIRECTION ( 'NONE',  ( 1.000000000000000000, 0.000000000000000000, 0.000000000000000000 ) ) ;
#6 =( NAMED_UNIT ( * ) PLANE_ANGLE_UNIT ( ) SI_UNIT ( $, .RADIAN. ) );
#7 = ORIENTED_EDGE ( 'NONE', *, *, #2, .T. ) ;
#8 = ORIENTED_EDGE ( 'NONE', *, *, #40, .T. ) ;
#9 = CARTESIAN_POINT ( 'NONE',  ( 1.000000000000000000, 6.123233995736766282E-16, -5.000000000000000000 ) ) ;
#10 = DIRECTION ( 'NONE',  ( 1.000000000000000000, 0.000000000000000000, 0.000000000000000000 ) ) ;
#11 = CIRCLE ( 'NONE', #108, 5.000000000000000000 ) ;
#12 = PRODUCT_RELATED_PRODUCT_CATEGORY ( 'detail', '', ( #119 ) ) ;
#13 = FACE_OUTER_BOUND ( 'NONE', #126, .T. ) ;
#14 = APPLICATION_PROTOCOL_DEFINITION ( 'international standard', 'config_control_design', 1994, #168 ) ;
#15 = PERSON_AND_ORGANIZATION_ROLE ( 'creator' ) ;
#16 = CARTESIAN_POINT ( 'NONE',  ( -1.000000000000000000, 0.000000000000000000, 5.000000000000000000 ) ) ;
#17 = DIRECTION ( 'NONE',  ( 1.000000000000000000, 0.000000000000000000, 0.000000000000000000 ) ) ;
#18 = PLANE ( 'NONE',  #157 ) ;
#19 = LOCAL_TIME ( 10, 36, 38.00000000000000000, #173 ) ;
#20 = CARTESIAN_POINT ( 'NONE',  ( 1.000000000000000000, 0.000000000000000000, 0.000000000000000000 ) ) ;
#21 = LOCAL_TIME ( 10, 36, 38.00000000000000000, #4 ) ;
#22 = CC_DESIGN_PERSON_AND_ORGANIZATION_ASSIGNMENT ( #169, #62, ( #170 ) ) ;
#23 = DATE_AND_TIME ( #72, #19 ) ;
#24 = CC_DESIGN_APPROVAL ( #152, ( #57 ) ) ;
#25 = PRODUCT_DEFINITION_SHAPE ( 'NONE', 'NONE',  #170 ) ;
#26 = PERSON_AND_ORGANIZATION ( #132, #145 ) ;
#27 = CIRCLE ( 'NONE', #115, 5.000000000000000000 ) ;
#28 = APPROVAL_DATE_TIME ( #23, #114 ) ;
#29 = DATE_TIME_ROLE ( 'classification_date' ) ;
#30 = APPROVAL_PERSON_ORGANIZATION ( #70, #114, #141 ) ;
#31 = APPROVAL_STATUS ( 'not_yet_approved' ) ;
#32 = DIRECTION ( 'NONE',  ( -1.000000000000000000, -0.000000000000000000, -0.000000000000000000 ) ) ;
#33 = APPROVAL_ROLE ( '' ) ;
#34 = CYLINDRICAL_SURFACE ( 'NONE', #67, 5.000000000000000000 ) ;
#35 = CARTESIAN_POINT ( 'NONE',  ( 1.000000000000000000, 0.000000000000000000, 0.000000000000000000 ) ) ;
#36 = SECURITY_CLASSIFICATION_LEVEL ( 'unclassified' ) ;
#37 = DIRECTION ( 'NONE',  ( 0.000000000000000000, 0.000000000000000000, -1.000000000000000000 ) ) ;
#38 = VECTOR ( 'NONE', #172, 1000.000000000000000 ) ;
#39 = COORDINATED_UNIVERSAL_TIME_OFFSET ( 5, 0, .BEHIND. ) ;
#40 = EDGE_CURVE ( 'NONE', #83, #46, #82, .T. ) ;
#41 = EDGE_LOOP ( 'NONE', ( #154, #7 ) ) ;
#42 = CC_DESIGN_DATE_AND_TIME_ASSIGNMENT ( #98, #29, ( #44 ) ) ;
#43 = CC_DESIGN_DATE_AND_TIME_ASSIGNMENT ( #74, #105, ( #170 ) ) ;
#44 = SECURITY_CLASSIFICATION ( '', '', #36 ) ;
#45 = ORIENTED_EDGE ( 'NONE', *, *, #101, .F. ) ;
#46 = VERTEX_POINT ( 'NONE', #16 ) ;
#47 = MECHANICAL_CONTEXT ( 'NONE', #168, 'mechanical' ) ;
#48 = APPROVAL_STATUS ( 'not_yet_approved' ) ;
#49 = APPLICATION_PROTOCOL_DEFINITION ( 'international standard', 'config_control_design', 1994, #167 ) ;
#50 = DIRECTION ( 'NONE',  ( 0.000000000000000000, 0.000000000000000000, 1.000000000000000000 ) ) ;
#51 = ADVANCED_FACE ( 'NONE', ( #13 ), #66, .F. ) ;
#52 = EDGE_CURVE ( 'NONE', #46, #110, #90, .T. ) ;
#53 = FACE_OUTER_BOUND ( 'NONE', #153, .T. ) ;
#54 = CARTESIAN_POINT ( 'NONE',  ( 0.000000000000000000, 0.000000000000000000, 0.000000000000000000 ) ) ;
#55 = CALENDAR_DATE ( 2021, 28, 6 ) ;
#56 = ADVANCED_FACE ( 'NONE', ( #161 ), #34, .T. ) ;
#57 = PRODUCT_DEFINITION_FORMATION_WITH_SPECIFIED_SOURCE ( 'ANY', '', #119, .NOT_KNOWN. ) ;
#58 = ORIENTED_EDGE ( 'NONE', *, *, #101, .T. ) ;
#59 = AXIS2_PLACEMENT_3D ( 'NONE', #54, #149, #120 ) ;
#60 = DESIGN_CONTEXT ( 'detailed design', #167, 'design' ) ;
#61 = EDGE_CURVE ( 'NONE', #89, #110, #77, .T. ) ;
#62 = PERSON_AND_ORGANIZATION_ROLE ( 'creator' ) ;
#63 = PERSON_AND_ORGANIZATION ( #132, #145 ) ;
#64 = APPROVAL_ROLE ( '' ) ;
#65 = APPROVAL ( #79, 'UNSPECIFIED' ) ;
#66 = PLANE ( 'NONE',  #166 ) ;
#67 = AXIS2_PLACEMENT_3D ( 'NONE', #97, #71, #50 ) ;
#68 = ADVANCED_BREP_SHAPE_REPRESENTATION ( 'Web Model 14957_18335', ( #100, #59 ), #163 ) ;
#69 = CARTESIAN_POINT ( 'NONE',  ( -1.000000000000000000, 0.000000000000000000, 0.000000000000000000 ) ) ;
#70 = PERSON_AND_ORGANIZATION ( #132, #145 ) ;
#71 = DIRECTION ( 'NONE',  ( -1.000000000000000000, -0.000000000000000000, -0.000000000000000000 ) ) ;
#72 = CALENDAR_DATE ( 2021, 28, 6 ) ;
#73 = DATE_AND_TIME ( #55, #93 ) ;
#74 = DATE_AND_TIME ( #164, #113 ) ;
#75 = SHAPE_DEFINITION_REPRESENTATION ( #25, #68 ) ;
#76 = EDGE_LOOP ( 'NONE', ( #118, #147, #58, #156 ) ) ;
#77 = LINE ( 'NONE', #123, #38 ) ;
#78 = DIRECTION ( 'NONE',  ( 0.000000000000000000, 0.000000000000000000, -1.000000000000000000 ) ) ;
#79 = APPROVAL_STATUS ( 'not_yet_approved' ) ;
#80 = APPROVAL_DATE_TIME ( #143, #152 ) ;
#81 = DIRECTION ( 'NONE',  ( 0.000000000000000000, 0.000000000000000000, -1.000000000000000000 ) ) ;
#82 = LINE ( 'NONE', #106, #155 ) ;
#83 = VERTEX_POINT ( 'NONE', #148 ) ;
#84 = DIRECTION ( 'NONE',  ( 0.000000000000000000, 0.000000000000000000, -1.000000000000000000 ) ) ;
#85 = PERSON_AND_ORGANIZATION ( #132, #145 ) ;
#86 = CC_DESIGN_APPROVAL ( #65, ( #44 ) ) ;
#87 = AXIS2_PLACEMENT_3D ( 'NONE', #20, #124, #37 ) ;
#88 = ORIENTED_EDGE ( 'NONE', *, *, #52, .T. ) ;
#89 = VERTEX_POINT ( 'NONE', #9 ) ;
#90 = CIRCLE ( 'NONE', #103, 5.000000000000000000 ) ;
#91 = PERSON_AND_ORGANIZATION_ROLE ( 'design_owner' ) ;
#92 = PERSON_AND_ORGANIZATION_ROLE ( 'classification_officer' ) ;
#93 = LOCAL_TIME ( 10, 36, 38.00000000000000000, #129 ) ;
#94 = CARTESIAN_POINT ( 'NONE',  ( -1.000000000000000000, 0.000000000000000000, 0.000000000000000000 ) ) ;
#95 =( LENGTH_UNIT ( ) NAMED_UNIT ( * ) SI_UNIT ( .MILLI., .METRE. ) );
#96 = CYLINDRICAL_SURFACE ( 'NONE', #104, 5.000000000000000000 ) ;
#97 = CARTESIAN_POINT ( 'NONE',  ( 1.000000000000000000, 0.000000000000000000, 0.000000000000000000 ) ) ;
#98 = DATE_AND_TIME ( #151, #21 ) ;
#99 = COORDINATED_UNIVERSAL_TIME_OFFSET ( 5, 0, .BEHIND. ) ;
#100 = MANIFOLD_SOLID_BREP ( 'Boss-Extrude1', #122 ) ;
#101 = EDGE_CURVE ( 'NONE', #110, #46, #27, .T. ) ;
#102 = PERSON_AND_ORGANIZATION ( #132, #145 ) ;
#103 = AXIS2_PLACEMENT_3D ( 'NONE', #69, #17, #81 ) ;
#104 = AXIS2_PLACEMENT_3D ( 'NONE', #111, #144, #134 ) ;
#105 = DATE_TIME_ROLE ( 'creation_date' ) ;
#106 = CARTESIAN_POINT ( 'NONE',  ( 1.000000000000000000, 0.000000000000000000, 5.000000000000000000 ) ) ;
#107 =( NAMED_UNIT ( * ) SI_UNIT ( $, .STERADIAN. ) SOLID_ANGLE_UNIT ( ) );
#108 = AXIS2_PLACEMENT_3D ( 'NONE', #35, #5, #78 ) ;
#109 = CARTESIAN_POINT ( 'NONE',  ( 1.000000000000000000, 0.000000000000000000, 0.000000000000000000 ) ) ;
#110 = VERTEX_POINT ( 'NONE', #133 ) ;
#111 = CARTESIAN_POINT ( 'NONE',  ( 1.000000000000000000, 0.000000000000000000, 0.000000000000000000 ) ) ;
#112 = ADVANCED_FACE ( 'NONE', ( #150 ), #18, .T. ) ;
#113 = LOCAL_TIME ( 10, 36, 38.00000000000000000, #99 ) ;
#114 = APPROVAL ( #31, 'UNSPECIFIED' ) ;
#115 = AXIS2_PLACEMENT_3D ( 'NONE', #146, #10, #159 ) ;
#116 = APPROVAL_PERSON_ORGANIZATION ( #171, #152, #64 ) ;
#117 = UNCERTAINTY_MEASURE_WITH_UNIT (LENGTH_MEASURE( 1.000000000000000082E-05 ), #95, 'distance_accuracy_value', 'NONE');
#118 = ORIENTED_EDGE ( 'NONE', *, *, #2, .F. ) ;
#119 = PRODUCT ( 'Web Model 14957_18335', 'Web Model 14957_18335', '', ( #47 ) ) ;
#120 = DIRECTION ( 'NONE',  ( 1.000000000000000000, 0.000000000000000000, 0.000000000000000000 ) ) ;
#121 = CC_DESIGN_PERSON_AND_ORGANIZATION_ASSIGNMENT ( #85, #92, ( #44 ) ) ;
#122 = CLOSED_SHELL ( 'NONE', ( #56, #135, #112, #51 ) ) ;
#123 = CARTESIAN_POINT ( 'NONE',  ( 1.000000000000000000, 6.123233995736766282E-16, -5.000000000000000000 ) ) ;
#124 = DIRECTION ( 'NONE',  ( 1.000000000000000000, 0.000000000000000000, 0.000000000000000000 ) ) ;
#125 = CC_DESIGN_SECURITY_CLASSIFICATION ( #44, ( #57 ) ) ;
#126 = EDGE_LOOP ( 'NONE', ( #175, #45 ) ) ;
#127 = EDGE_CURVE ( 'NONE', #83, #89, #139, .T. ) ;
#128 = PERSON_AND_ORGANIZATION ( #132, #145 ) ;
#129 = COORDINATED_UNIVERSAL_TIME_OFFSET ( 5, 0, .BEHIND. ) ;
#130 = CC_DESIGN_PERSON_AND_ORGANIZATION_ASSIGNMENT ( #63, #91, ( #119 ) ) ;
#131 = ORIENTED_EDGE ( 'NONE', *, *, #127, .F. ) ;
#132 = PERSON ( 'UNSPECIFIED', 'UNSPECIFIED', 'UNSPECIFIED', ('UNSPECIFIED'), ('UNSPECIFIED'), ('UNSPECIFIED') ) ;
#133 = CARTESIAN_POINT ( 'NONE',  ( -1.000000000000000000, 6.123233995736766282E-16, -5.000000000000000000 ) ) ;
#134 = DIRECTION ( 'NONE',  ( 0.000000000000000000, 0.000000000000000000, 1.000000000000000000 ) ) ;
#135 = ADVANCED_FACE ( 'NONE', ( #53 ), #96, .T. ) ;
#136 = CC_DESIGN_APPROVAL ( #114, ( #170 ) ) ;
#137 = APPROVAL_DATE_TIME ( #73, #65 ) ;
#138 = LOCAL_TIME ( 10, 36, 38.00000000000000000, #39 ) ;
#139 = CIRCLE ( 'NONE', #87, 5.000000000000000000 ) ;
#140 = PERSON_AND_ORGANIZATION_ROLE ( 'design_supplier' ) ;
#141 = APPROVAL_ROLE ( '' ) ;
#142 = DIRECTION ( 'NONE',  ( 0.000000000000000000, 0.000000000000000000, -1.000000000000000000 ) ) ;
#143 = DATE_AND_TIME ( #1, #138 ) ;
#144 = DIRECTION ( 'NONE',  ( -1.000000000000000000, -0.000000000000000000, -0.000000000000000000 ) ) ;
#145 = ORGANIZATION ( 'UNSPECIFIED', 'UNSPECIFIED', '' ) ;
#146 = CARTESIAN_POINT ( 'NONE',  ( -1.000000000000000000, 0.000000000000000000, 0.000000000000000000 ) ) ;
#147 = ORIENTED_EDGE ( 'NONE', *, *, #61, .T. ) ;
#148 = CARTESIAN_POINT ( 'NONE',  ( 1.000000000000000000, 0.000000000000000000, 5.000000000000000000 ) ) ;
#149 = DIRECTION ( 'NONE',  ( 0.000000000000000000, 0.000000000000000000, 1.000000000000000000 ) ) ;
#150 = FACE_OUTER_BOUND ( 'NONE', #41, .T. ) ;
#151 = CALENDAR_DATE ( 2021, 28, 6 ) ;
#152 = APPROVAL ( #48, 'UNSPECIFIED' ) ;
#153 = EDGE_LOOP ( 'NONE', ( #158, #131, #8, #88 ) ) ;
#154 = ORIENTED_EDGE ( 'NONE', *, *, #127, .T. ) ;
#155 = VECTOR ( 'NONE', #32, 1000.000000000000000 ) ;
#156 = ORIENTED_EDGE ( 'NONE', *, *, #40, .F. ) ;
#157 = AXIS2_PLACEMENT_3D ( 'NONE', #109, #160, #84 ) ;
#158 = ORIENTED_EDGE ( 'NONE', *, *, #61, .F. ) ;
#159 = DIRECTION ( 'NONE',  ( 0.000000000000000000, 0.000000000000000000, -1.000000000000000000 ) ) ;
#160 = DIRECTION ( 'NONE',  ( 1.000000000000000000, 0.000000000000000000, 0.000000000000000000 ) ) ;
#161 = FACE_OUTER_BOUND ( 'NONE', #76, .T. ) ;
#162 = APPROVAL_PERSON_ORGANIZATION ( #102, #65, #33 ) ;
#163 =( GEOMETRIC_REPRESENTATION_CONTEXT ( 3 ) GLOBAL_UNCERTAINTY_ASSIGNED_CONTEXT ( ( #117 ) ) GLOBAL_UNIT_ASSIGNED_CONTEXT ( ( #95, #6, #107 ) ) REPRESENTATION_CONTEXT ( 'NONE', 'WORKASPACE' ) );
#164 = CALENDAR_DATE ( 2021, 28, 6 ) ;
#165 = CC_DESIGN_PERSON_AND_ORGANIZATION_ASSIGNMENT ( #128, #15, ( #57 ) ) ;
#166 = AXIS2_PLACEMENT_3D ( 'NONE', #94, #3, #142 ) ;
#167 = APPLICATION_CONTEXT ( 'configuration controlled 3d designs of mechanical parts and assemblies' ) ;
#168 = APPLICATION_CONTEXT ( 'configuration controlled 3d designs of mechanical parts and assemblies' ) ;
#169 = PERSON_AND_ORGANIZATION ( #132, #145 ) ;
#170 = PRODUCT_DEFINITION ( 'UNKNOWN', '', #57, #60 ) ;
#171 = PERSON_AND_ORGANIZATION ( #132, #145 ) ;
#172 = DIRECTION ( 'NONE',  ( -1.000000000000000000, -0.000000000000000000, -0.000000000000000000 ) ) ;
#173 = COORDINATED_UNIVERSAL_TIME_OFFSET ( 5, 0, .BEHIND. ) ;
#174 = CC_DESIGN_PERSON_AND_ORGANIZATION_ASSIGNMENT ( #26, #140, ( #57 ) ) ;
#175 = ORIENTED_EDGE ( 'NONE', *, *, #52, .F. ) ;
ENDSEC;
END-ISO-10303-21;
