ISO-10303-21;
HEADER;
FILE_DESCRIPTION (( 'STEP AP214' ),
    '1' );
FILE_NAME ('4480-E0W.STEP',
    '2009-12-21T17:06:07',
    ( ' ' ),
    ( ' ' ),
    'SwSTEP 2.0',
    'SolidWorks 2009',
    '' );
FILE_SCHEMA (( 'AUTOMOTIVE_DESIGN' ));
ENDSEC;

DATA;
#1 = EDGE_LOOP ( 'NONE', ( #6, #19, #13, #18, #2 ) ) ;
#2 = ORIENTED_EDGE ( 'NONE', *, *, #8, .F. ) ;
#3 = EDGE_CURVE ( 'NONE', #10, #46, #65, .T. ) ;
#4 = EDGE_LOOP ( 'NONE', ( #47, #23, #27, #21 ) ) ;
#5 = VERTEX_POINT ( 'NONE', #74 ) ;
#6 = ORIENTED_EDGE ( 'NONE', *, *, #11, .T. ) ;
#7 = ADVANCED_FACE ( 'NONE', ( #115 ), #117, .T. ) ;
#8 = EDGE_CURVE ( 'NONE', #45, #44, #84, .T. ) ;
#9 =( LENGTH_UNIT ( ) NAMED_UNIT ( * ) SI_UNIT ( .MILLI., .METRE. ) );
#10 = VERTEX_POINT ( 'NONE', #60 ) ;
#11 = EDGE_CURVE ( 'NONE', #45, #5, #70, .T. ) ;
#12 = STYLED_ITEM ( 'NONE', ( #89 ), #17 ) ;
#13 = ORIENTED_EDGE ( 'NONE', *, *, #3, .F. ) ;
#14 = PRESENTATION_LAYER_ASSIGNMENT (  '', '', ( #12 ) ) ;
#15 = MECHANICAL_DESIGN_GEOMETRIC_PRESENTATION_REPRESENTATION (  '', ( #12 ), #139 ) ;
#16 = ADVANCED_FACE ( 'NONE', ( #71 ), #100, .T. ) ;
#17 = MANIFOLD_SOLID_BREP ( 'NONE', #51 ) ;
#18 = ORIENTED_EDGE ( 'NONE', *, *, #20, .F. ) ;
#19 = ORIENTED_EDGE ( 'NONE', *, *, #49, .T. ) ;
#20 = EDGE_CURVE ( 'NONE', #44, #10, #131, .T. ) ;
#21 = ORIENTED_EDGE ( 'NONE', *, *, #22, .F. ) ;
#22 = EDGE_CURVE ( 'NONE', #10, #26, #158, .T. ) ;
#23 = ORIENTED_EDGE ( 'NONE', *, *, #53, .T. ) ;
#24 = ORIENTED_EDGE ( 'NONE', *, *, #20, .T. ) ;
#25 = ORIENTED_EDGE ( 'NONE', *, *, #22, .T. ) ;
#26 = VERTEX_POINT ( 'NONE', #152 ) ;
#27 = ORIENTED_EDGE ( 'NONE', *, *, #37, .T. ) ;
#28 = ADVANCED_FACE ( 'NONE', ( #126 ), #164, .F. ) ;
#29 = ORIENTED_EDGE ( 'NONE', *, *, #38, .F. ) ;
#30 = ORIENTED_EDGE ( 'NONE', *, *, #8, .T. ) ;
#31 = ORIENTED_EDGE ( 'NONE', *, *, #49, .F. ) ;
#32 = ORIENTED_EDGE ( 'NONE', *, *, #42, .T. ) ;
#33 = ORIENTED_EDGE ( 'NONE', *, *, #53, .F. ) ;
#34 = EDGE_LOOP ( 'NONE', ( #39, #52, #24, #25 ) ) ;
#35 = ORIENTED_EDGE ( 'NONE', *, *, #42, .F. ) ;
#36 = ADVANCED_FACE ( 'NONE', ( #168 ), #232, .T. ) ;
#37 = EDGE_CURVE ( 'NONE', #54, #26, #228, .T. ) ;
#38 = EDGE_CURVE ( 'NONE', #54, #44, #212, .T. ) ;
#39 = ORIENTED_EDGE ( 'NONE', *, *, #37, .F. ) ;
#40 =( LENGTH_UNIT ( ) NAMED_UNIT ( * ) SI_UNIT ( .MILLI., .METRE. ) );
#41 = EDGE_LOOP ( 'NONE', ( #50, #35 ) ) ;
#42 = EDGE_CURVE ( 'NONE', #5, #45, #229, .T. ) ;
#43 = ADVANCED_FACE ( 'NONE', ( #233 ), #195, .T. ) ;
#44 = VERTEX_POINT ( 'NONE', #208 ) ;
#45 = VERTEX_POINT ( 'NONE', #231 ) ;
#46 = VERTEX_POINT ( 'NONE', #227 ) ;
#47 = ORIENTED_EDGE ( 'NONE', *, *, #3, .T. ) ;
#48 = EDGE_LOOP ( 'NONE', ( #31, #32, #30, #29, #33 ) ) ;
#49 = EDGE_CURVE ( 'NONE', #5, #46, #204, .T. ) ;
#50 = ORIENTED_EDGE ( 'NONE', *, *, #11, .F. ) ;
#51 = CLOSED_SHELL ( 'NONE', ( #16, #7, #43, #36, #28 ) ) ;
#52 = ORIENTED_EDGE ( 'NONE', *, *, #38, .T. ) ;
#53 = EDGE_CURVE ( 'NONE', #46, #54, #193, .T. ) ;
#54 = VERTEX_POINT ( 'NONE', #174 ) ;
#55 =( NAMED_UNIT ( * ) PLANE_ANGLE_UNIT ( ) SI_UNIT ( $, .RADIAN. ) );
#56 =( NAMED_UNIT ( * ) PLANE_ANGLE_UNIT ( ) SI_UNIT ( $, .RADIAN. ) );
#57 =( LENGTH_UNIT ( ) NAMED_UNIT ( * ) SI_UNIT ( .MILLI., .METRE. ) );
#58 = DIRECTION ( 'NONE',  ( -0.0000000000000000000, -0.0000000000000000000, 1.000000000000000000 ) ) ;
#59 = CARTESIAN_POINT ( 'NONE',  ( 6.350000000000001400, 0.0000000000000000000, 4.308132045400366600 ) ) ;
#60 = CARTESIAN_POINT ( 'NONE',  ( 0.0000000000000000000, 6.350000000000002300, 0.2147435191415529900 ) ) ;
#61 = PRESENTATION_STYLE_ASSIGNMENT (( #119 ) ) ;
#62 =( LENGTH_UNIT ( ) NAMED_UNIT ( * ) SI_UNIT ( .MILLI., .METRE. ) );
#63 = MECHANICAL_DESIGN_GEOMETRIC_PRESENTATION_REPRESENTATION (  '', ( #102 ), #113 ) ;
#64 = AXIS2_PLACEMENT_3D ( 'NONE', #72, #75, #108 ) ;
#65 = CIRCLE ( 'NONE', #64, 6.350000000000002300 ) ;
#66 = AXIS2_PLACEMENT_3D ( 'NONE', #87, #86, #85 ) ;
#67 = UNCERTAINTY_MEASURE_WITH_UNIT (LENGTH_MEASURE( 1.000000000000000100E-005 ), #62, 'distance_accuracy_value', 'NONE');
#68 =( NAMED_UNIT ( * ) PLANE_ANGLE_UNIT ( ) SI_UNIT ( $, .RADIAN. ) );
#69 = AXIS2_PLACEMENT_3D ( 'NONE', #82, #81, #80 ) ;
#70 = CIRCLE ( 'NONE', #69, 6.350000000000000500 ) ;
#71 = FACE_OUTER_BOUND ( 'NONE', #1, .T. ) ;
#72 = CARTESIAN_POINT ( 'NONE',  ( 0.0000000000000000000, 0.0000000000000000000, 0.2147435191415534000 ) ) ;
#73 = SURFACE_SIDE_STYLE ('',( #120 ) ) ;
#74 = CARTESIAN_POINT ( 'NONE',  ( -6.350000000000000500, 7.776250346772096400E-016, -1.579999999999999800 ) ) ;
#75 = DIRECTION ( 'NONE',  ( -0.0000000000000000000, -0.0000000000000000000, 1.000000000000000000 ) ) ;
#76 =( NAMED_UNIT ( * ) SI_UNIT ( $, .STERADIAN. ) SOLID_ANGLE_UNIT ( ) );
#77 =( NAMED_UNIT ( * ) PLANE_ANGLE_UNIT ( ) SI_UNIT ( $, .RADIAN. ) );
#78 = FILL_AREA_STYLE_COLOUR ( '', #79 ) ;
#79 = COLOUR_RGB ( '',0.9568627450980391500, 0.9490196078431372100, 0.9607843137254902200 ) ;
#80 = DIRECTION ( 'NONE',  ( 1.000000000000000000, 0.0000000000000000000, 0.0000000000000000000 ) ) ;
#81 = DIRECTION ( 'NONE',  ( -0.0000000000000000000, -0.0000000000000000000, 1.000000000000000000 ) ) ;
#82 = CARTESIAN_POINT ( 'NONE',  ( 0.0000000000000000000, 0.0000000000000000000, -1.579999999999999800 ) ) ;
#83 =( NAMED_UNIT ( * ) SI_UNIT ( $, .STERADIAN. ) SOLID_ANGLE_UNIT ( ) );
#84 = LINE ( 'NONE', #59, #88 ) ;
#85 = DIRECTION ( 'NONE',  ( 0.0000000000000000000, 1.000000000000000000, 0.0000000000000000000 ) ) ;
#86 = DIRECTION ( 'NONE',  ( -1.000000000000000000, 0.0000000000000000000, 0.0000000000000000000 ) ) ;
#87 = CARTESIAN_POINT ( 'NONE',  ( 0.0000000000000000000, 0.0000000000000000000, -13.86999999999999700 ) ) ;
#88 = VECTOR ( 'NONE', #58, 1000.000000000000000 ) ;
#89 = PRESENTATION_STYLE_ASSIGNMENT (( #90 ) ) ;
#90 = SURFACE_STYLE_USAGE ( .BOTH. , #91 ) ;
#91 = SURFACE_SIDE_STYLE ('',( #92 ) ) ;
#92 = SURFACE_STYLE_FILL_AREA ( #94 ) ;
#93 = DIRECTION ( 'NONE',  ( 1.000000000000000000, 0.0000000000000000000, 0.0000000000000000000 ) ) ;
#94 = FILL_AREA_STYLE ('',( #95 ) ) ;
#95 = FILL_AREA_STYLE_COLOUR ( '', #96 ) ;
#96 = COLOUR_RGB ( '',0.7960784313725489700, 0.8235294117647058400, 0.9372549019607843100 ) ;
#97 = DIRECTION ( 'NONE',  ( -0.0000000000000000000, -0.0000000000000000000, 1.000000000000000000 ) ) ;
#98 = AXIS2_PLACEMENT_3D ( 'NONE', #99, #97, #93 ) ;
#99 = CARTESIAN_POINT ( 'NONE',  ( 0.0000000000000000000, 0.0000000000000000000, 4.308132045400366600 ) ) ;
#100 = CYLINDRICAL_SURFACE ( 'NONE', #98, 6.350000000000001400 ) ;
#101 = PRESENTATION_LAYER_ASSIGNMENT (  '', '', ( #102 ) ) ;
#102 = STYLED_ITEM ( 'NONE', ( #103 ), #16 ) ;
#103 = PRESENTATION_STYLE_ASSIGNMENT (( #104 ) ) ;
#104 = SURFACE_STYLE_USAGE ( .BOTH. , #105 ) ;
#105 = SURFACE_SIDE_STYLE ('',( #106 ) ) ;
#106 = SURFACE_STYLE_FILL_AREA ( #107 ) ;
#107 = FILL_AREA_STYLE ('',( #78 ) ) ;
#108 = DIRECTION ( 'NONE',  ( 1.000000000000000000, 0.0000000000000000000, 0.0000000000000000000 ) ) ;
#109 = MECHANICAL_DESIGN_GEOMETRIC_PRESENTATION_REPRESENTATION (  '', ( #111 ), #112 ) ;
#110 = PRESENTATION_LAYER_ASSIGNMENT (  '', '', ( #111 ) ) ;
#111 = STYLED_ITEM ( 'NONE', ( #61 ), #7 ) ;
#112 =( GEOMETRIC_REPRESENTATION_CONTEXT ( 3 ) GLOBAL_UNCERTAINTY_ASSIGNED_CONTEXT ( ( #121 ) ) GLOBAL_UNIT_ASSIGNED_CONTEXT ( ( #57, #68, #83 ) ) REPRESENTATION_CONTEXT ( 'NONE', 'WORKASPACE' ) );
#113 =( GEOMETRIC_REPRESENTATION_CONTEXT ( 3 ) GLOBAL_UNCERTAINTY_ASSIGNED_CONTEXT ( ( #67 ) ) GLOBAL_UNIT_ASSIGNED_CONTEXT ( ( #62, #77, #76 ) ) REPRESENTATION_CONTEXT ( 'NONE', 'WORKASPACE' ) );
#114 = FILL_AREA_STYLE_COLOUR ( '', #118 ) ;
#115 = FACE_OUTER_BOUND ( 'NONE', #4, .T. ) ;
#116 = FILL_AREA_STYLE ('',( #114 ) ) ;
#117 = SPHERICAL_SURFACE ( 'NONE', #66, 15.44999999999999800 ) ;
#118 = COLOUR_RGB ( '',0.9568627450980391500, 0.9490196078431372100, 0.9607843137254902200 ) ;
#119 = SURFACE_STYLE_USAGE ( .BOTH. , #73 ) ;
#120 = SURFACE_STYLE_FILL_AREA ( #116 ) ;
#121 = UNCERTAINTY_MEASURE_WITH_UNIT (LENGTH_MEASURE( 1.000000000000000100E-005 ), #57, 'distance_accuracy_value', 'NONE');
#122 = SURFACE_STYLE_FILL_AREA ( #155 ) ;
#123 = PRESENTATION_LAYER_ASSIGNMENT (  '', '', ( #132 ) ) ;
#124 = DIRECTION ( 'NONE',  ( 1.000000000000000000, 0.0000000000000000000, 0.0000000000000000000 ) ) ;
#125 = DIRECTION ( 'NONE',  ( -0.0000000000000000000, -0.0000000000000000000, 1.000000000000000000 ) ) ;
#126 = FACE_OUTER_BOUND ( 'NONE', #41, .T. ) ;
#127 =( NAMED_UNIT ( * ) SI_UNIT ( $, .STERADIAN. ) SOLID_ANGLE_UNIT ( ) );
#128 =( NAMED_UNIT ( * ) PLANE_ANGLE_UNIT ( ) SI_UNIT ( $, .RADIAN. ) );
#129 = PRESENTATION_STYLE_ASSIGNMENT (( #135 ) ) ;
#130 =( LENGTH_UNIT ( ) NAMED_UNIT ( * ) SI_UNIT ( .MILLI., .METRE. ) );
#131 = CIRCLE ( 'NONE', #162, 6.350000000000002300 ) ;
#132 = STYLED_ITEM ( 'NONE', ( #129 ), #28 ) ;
#133 = DIRECTION ( 'NONE',  ( 1.000000000000000000, 0.0000000000000000000, 0.0000000000000000000 ) ) ;
#134 = SURFACE_SIDE_STYLE ('',( #122 ) ) ;
#135 = SURFACE_STYLE_USAGE ( .BOTH. , #134 ) ;
#136 = AXIS2_PLACEMENT_3D ( 'NONE', #153, #124, #154 ) ;
#137 = UNCERTAINTY_MEASURE_WITH_UNIT (LENGTH_MEASURE( 1.000000000000000100E-005 ), #9, 'distance_accuracy_value', 'NONE');
#138 = COLOUR_RGB ( '',0.9568627450980391500, 0.9490196078431372100, 0.9607843137254902200 ) ;
#139 =( GEOMETRIC_REPRESENTATION_CONTEXT ( 3 ) GLOBAL_UNCERTAINTY_ASSIGNED_CONTEXT ( ( #137 ) ) GLOBAL_UNIT_ASSIGNED_CONTEXT ( ( #9, #55, #172 ) ) REPRESENTATION_CONTEXT ( 'NONE', 'WORKASPACE' ) );
#140 = SURFACE_SIDE_STYLE ('',( #141 ) ) ;
#141 = SURFACE_STYLE_FILL_AREA ( #142 ) ;
#142 = FILL_AREA_STYLE ('',( #143 ) ) ;
#143 = FILL_AREA_STYLE_COLOUR ( '', #167 ) ;
#144 = DIRECTION ( 'NONE',  ( 1.000000000000000000, 0.0000000000000000000, 0.0000000000000000000 ) ) ;
#145 = DIRECTION ( 'NONE',  ( 0.0000000000000000000, -0.0000000000000000000, 1.000000000000000000 ) ) ;
#146 = AXIS2_PLACEMENT_3D ( 'NONE', #163, #145, #144 ) ;
#147 = MECHANICAL_DESIGN_GEOMETRIC_PRESENTATION_REPRESENTATION (  '', ( #149 ), #157 ) ;
#148 = PRESENTATION_LAYER_ASSIGNMENT (  '', '', ( #149 ) ) ;
#149 = STYLED_ITEM ( 'NONE', ( #150 ), #36 ) ;
#150 = PRESENTATION_STYLE_ASSIGNMENT (( #151 ) ) ;
#151 = SURFACE_STYLE_USAGE ( .BOTH. , #140 ) ;
#152 = CARTESIAN_POINT ( 'NONE',  ( 0.0000000000000000000, 9.460084083277863100E-016, 1.579999999999999800 ) ) ;
#153 = CARTESIAN_POINT ( 'NONE',  ( 0.0000000000000000000, 0.0000000000000000000, -13.86999999999999700 ) ) ;
#154 = DIRECTION ( 'NONE',  ( 0.0000000000000000000, 0.0000000000000000000, -1.000000000000000000 ) ) ;
#155 = FILL_AREA_STYLE ('',( #169 ) ) ;
#156 =( LENGTH_UNIT ( ) NAMED_UNIT ( * ) SI_UNIT ( .MILLI., .METRE. ) );
#157 =( GEOMETRIC_REPRESENTATION_CONTEXT ( 3 ) GLOBAL_UNCERTAINTY_ASSIGNED_CONTEXT ( ( #160 ) ) GLOBAL_UNIT_ASSIGNED_CONTEXT ( ( #156, #128, #127 ) ) REPRESENTATION_CONTEXT ( 'NONE', 'WORKASPACE' ) );
#158 = CIRCLE ( 'NONE', #136, 15.44999999999999600 ) ;
#159 =( NAMED_UNIT ( * ) PLANE_ANGLE_UNIT ( ) SI_UNIT ( $, .RADIAN. ) );
#160 = UNCERTAINTY_MEASURE_WITH_UNIT (LENGTH_MEASURE( 1.000000000000000100E-005 ), #156, 'distance_accuracy_value', 'NONE');
#161 = CARTESIAN_POINT ( 'NONE',  ( 0.0000000000000000000, 0.0000000000000000000, 0.2147435191415534000 ) ) ;
#162 = AXIS2_PLACEMENT_3D ( 'NONE', #161, #125, #133 ) ;
#163 = CARTESIAN_POINT ( 'NONE',  ( 0.0000000000000000000, 5.804825827958453700E-016, -1.580000000000000300 ) ) ;
#164 = PLANE ( 'NONE',  #146 ) ;
#165 =( GEOMETRIC_REPRESENTATION_CONTEXT ( 3 ) GLOBAL_UNCERTAINTY_ASSIGNED_CONTEXT ( ( #170 ) ) GLOBAL_UNIT_ASSIGNED_CONTEXT ( ( #130, #159, #171 ) ) REPRESENTATION_CONTEXT ( 'NONE', 'WORKASPACE' ) );
#166 = MECHANICAL_DESIGN_GEOMETRIC_PRESENTATION_REPRESENTATION (  '', ( #132 ), #165 ) ;
#167 = COLOUR_RGB ( '',0.9568627450980391500, 0.9490196078431372100, 0.9607843137254902200 ) ;
#168 = FACE_OUTER_BOUND ( 'NONE', #48, .T. ) ;
#169 = FILL_AREA_STYLE_COLOUR ( '', #138 ) ;
#170 = UNCERTAINTY_MEASURE_WITH_UNIT (LENGTH_MEASURE( 1.000000000000000100E-005 ), #130, 'distance_accuracy_value', 'NONE');
#171 =( NAMED_UNIT ( * ) SI_UNIT ( $, .STERADIAN. ) SOLID_ANGLE_UNIT ( ) );
#172 =( NAMED_UNIT ( * ) SI_UNIT ( $, .STERADIAN. ) SOLID_ANGLE_UNIT ( ) );
#173 =( LENGTH_UNIT ( ) NAMED_UNIT ( * ) SI_UNIT ( .MILLI., .METRE. ) );
#174 = CARTESIAN_POINT ( 'NONE',  ( -7.776250346772098400E-016, -6.350000000000002300, 0.2147435191415529900 ) ) ;
#175 = DIRECTION ( 'NONE',  ( -0.0000000000000000000, -0.0000000000000000000, 1.000000000000000000 ) ) ;
#176 = DIRECTION ( 'NONE',  ( 1.000000000000000000, 0.0000000000000000000, 0.0000000000000000000 ) ) ;
#177 = UNCERTAINTY_MEASURE_WITH_UNIT (LENGTH_MEASURE( 1.000000000000000100E-005 ), #199, 'distance_accuracy_value', 'NONE');
#178 = AXIS2_PLACEMENT_3D ( 'NONE', #179, #226, #176 ) ;
#179 = CARTESIAN_POINT ( 'NONE',  ( 0.0000000000000000000, 0.0000000000000000000, 4.308132045400366600 ) ) ;
#180 =( NAMED_UNIT ( * ) SI_UNIT ( $, .STERADIAN. ) SOLID_ANGLE_UNIT ( ) );
#181 =( NAMED_UNIT ( * ) PLANE_ANGLE_UNIT ( ) SI_UNIT ( $, .RADIAN. ) );
#182 = DIRECTION ( 'NONE',  ( 1.000000000000000000, 0.0000000000000000000, 0.0000000000000000000 ) ) ;
#183 = DIRECTION ( 'NONE',  ( 1.000000000000000000, 0.0000000000000000000, 0.0000000000000000000 ) ) ;
#184 = AXIS2_PLACEMENT_3D ( 'NONE', #188, #222, #198 ) ;
#185 = CARTESIAN_POINT ( 'NONE',  ( 0.0000000000000000000, 0.0000000000000000000, -1.579999999999999800 ) ) ;
#186 = FILL_AREA_STYLE_COLOUR ( '', #196 ) ;
#187 =( GEOMETRIC_REPRESENTATION_CONTEXT ( 3 ) GLOBAL_UNCERTAINTY_ASSIGNED_CONTEXT ( ( #205 ) ) GLOBAL_UNIT_ASSIGNED_CONTEXT ( ( #173, #197, #206 ) ) REPRESENTATION_CONTEXT ( 'NONE', 'WORKASPACE' ) );
#188 = CARTESIAN_POINT ( 'NONE',  ( 0.0000000000000000000, 0.0000000000000000000, -13.86999999999999700 ) ) ;
#189 = DIRECTION ( 'NONE',  ( 1.000000000000000000, 0.0000000000000000000, 0.0000000000000000000 ) ) ;
#190 = DIRECTION ( 'NONE',  ( -0.0000000000000000000, -0.0000000000000000000, 1.000000000000000000 ) ) ;
#191 = CARTESIAN_POINT ( 'NONE',  ( 0.0000000000000000000, 0.0000000000000000000, 0.2147435191415534000 ) ) ;
#192 = AXIS2_PLACEMENT_3D ( 'NONE', #191, #190, #189 ) ;
#193 = CIRCLE ( 'NONE', #192, 6.350000000000002300 ) ;
#194 = CARTESIAN_POINT ( 'NONE',  ( 0.0000000000000000000, 0.0000000000000000000, -13.86999999999999700 ) ) ;
#195 = SPHERICAL_SURFACE ( 'NONE', #211, 15.44999999999999800 ) ;
#196 = COLOUR_RGB ( '',0.9568627450980391500, 0.9490196078431372100, 0.9607843137254902200 ) ;
#197 =( NAMED_UNIT ( * ) PLANE_ANGLE_UNIT ( ) SI_UNIT ( $, .RADIAN. ) );
#198 = DIRECTION ( 'NONE',  ( -1.224606353822377300E-016, -1.000000000000000000, 0.0000000000000000000 ) ) ;
#199 =( LENGTH_UNIT ( ) NAMED_UNIT ( * ) SI_UNIT ( .MILLI., .METRE. ) );
#200 = MECHANICAL_DESIGN_GEOMETRIC_PRESENTATION_REPRESENTATION (  '', ( #224 ), #242 ) ;
#201 = DIRECTION ( 'NONE',  ( -0.0000000000000000000, -0.0000000000000000000, 1.000000000000000000 ) ) ;
#202 = VECTOR ( 'NONE', #201, 1000.000000000000000 ) ;
#203 = CARTESIAN_POINT ( 'NONE',  ( -6.350000000000001400, 7.776250346772097400E-016, 4.308132045400366600 ) ) ;
#204 = LINE ( 'NONE', #203, #202 ) ;
#205 = UNCERTAINTY_MEASURE_WITH_UNIT (LENGTH_MEASURE( 1.000000000000000100E-005 ), #173, 'distance_accuracy_value', 'NONE');
#206 =( NAMED_UNIT ( * ) SI_UNIT ( $, .STERADIAN. ) SOLID_ANGLE_UNIT ( ) );
#207 = DIRECTION ( 'NONE',  ( -0.0000000000000000000, -0.0000000000000000000, 1.000000000000000000 ) ) ;
#208 = CARTESIAN_POINT ( 'NONE',  ( 6.350000000000003200, 0.0000000000000000000, 0.2147435191415534000 ) ) ;
#209 = DIRECTION ( 'NONE',  ( 0.0000000000000000000, 1.000000000000000000, 0.0000000000000000000 ) ) ;
#210 = DIRECTION ( 'NONE',  ( -1.000000000000000000, 0.0000000000000000000, 0.0000000000000000000 ) ) ;
#211 = AXIS2_PLACEMENT_3D ( 'NONE', #194, #210, #209 ) ;
#212 = CIRCLE ( 'NONE', #217, 6.350000000000002300 ) ;
#213 = SURFACE_STYLE_USAGE ( .BOTH. , #214 ) ;
#214 = SURFACE_SIDE_STYLE ('',( #215 ) ) ;
#215 = SURFACE_STYLE_FILL_AREA ( #216 ) ;
#216 = FILL_AREA_STYLE ('',( #186 ) ) ;
#217 = AXIS2_PLACEMENT_3D ( 'NONE', #221, #207, #182 ) ;
#218 = FILL_AREA_STYLE_COLOUR ( '', #219 ) ;
#219 = COLOUR_RGB ( '',0.7960784313725489700, 0.8235294117647058400, 0.9372549019607843100 ) ;
#220 = ADVANCED_BREP_SHAPE_REPRESENTATION ( '4480-E0W', ( #17, #260 ), #187 ) ;
#221 = CARTESIAN_POINT ( 'NONE',  ( 0.0000000000000000000, 0.0000000000000000000, 0.2147435191415534000 ) ) ;
#222 = DIRECTION ( 'NONE',  ( -1.000000000000000000, 1.224606353822377300E-016, 0.0000000000000000000 ) ) ;
#223 = PRESENTATION_LAYER_ASSIGNMENT (  '', '', ( #224 ) ) ;
#224 = STYLED_ITEM ( 'NONE', ( #225 ), #43 ) ;
#225 = PRESENTATION_STYLE_ASSIGNMENT (( #213 ) ) ;
#226 = DIRECTION ( 'NONE',  ( -0.0000000000000000000, -0.0000000000000000000, 1.000000000000000000 ) ) ;
#227 = CARTESIAN_POINT ( 'NONE',  ( -6.350000000000003200, 7.776250346772099300E-016, 0.2147435191415534000 ) ) ;
#228 = CIRCLE ( 'NONE', #184, 15.44999999999999800 ) ;
#229 = CIRCLE ( 'NONE', #230, 6.350000000000000500 ) ;
#230 = AXIS2_PLACEMENT_3D ( 'NONE', #185, #175, #183 ) ;
#231 = CARTESIAN_POINT ( 'NONE',  ( 6.350000000000000500, 0.0000000000000000000, -1.579999999999999800 ) ) ;
#232 = CYLINDRICAL_SURFACE ( 'NONE', #178, 6.350000000000001400 ) ;
#233 = FACE_OUTER_BOUND ( 'NONE', #34, .T. ) ;
#234 = MECHANICAL_DESIGN_GEOMETRIC_PRESENTATION_REPRESENTATION (  '', ( #236 ), #244 ) ;
#235 = PRESENTATION_LAYER_ASSIGNMENT (  '', '', ( #236 ) ) ;
#236 = STYLED_ITEM ( 'NONE', ( #237 ), #220 ) ;
#237 = PRESENTATION_STYLE_ASSIGNMENT (( #238 ) ) ;
#238 = SURFACE_STYLE_USAGE ( .BOTH. , #239 ) ;
#239 = SURFACE_SIDE_STYLE ('',( #240 ) ) ;
#240 = SURFACE_STYLE_FILL_AREA ( #241 ) ;
#241 = FILL_AREA_STYLE ('',( #218 ) ) ;
#242 =( GEOMETRIC_REPRESENTATION_CONTEXT ( 3 ) GLOBAL_UNCERTAINTY_ASSIGNED_CONTEXT ( ( #177 ) ) GLOBAL_UNIT_ASSIGNED_CONTEXT ( ( #199, #181, #180 ) ) REPRESENTATION_CONTEXT ( 'NONE', 'WORKASPACE' ) );
#243 =( NAMED_UNIT ( * ) SI_UNIT ( $, .STERADIAN. ) SOLID_ANGLE_UNIT ( ) );
#244 =( GEOMETRIC_REPRESENTATION_CONTEXT ( 3 ) GLOBAL_UNCERTAINTY_ASSIGNED_CONTEXT ( ( #245 ) ) GLOBAL_UNIT_ASSIGNED_CONTEXT ( ( #40, #56, #243 ) ) REPRESENTATION_CONTEXT ( 'NONE', 'WORKASPACE' ) );
#245 = UNCERTAINTY_MEASURE_WITH_UNIT (LENGTH_MEASURE( 1.000000000000000100E-005 ), #40, 'distance_accuracy_value', 'NONE');
#246 = CARTESIAN_POINT ( 'NONE',  ( 0.0000000000000000000, 0.0000000000000000000, 0.0000000000000000000 ) ) ;
#247 = SHAPE_DEFINITION_REPRESENTATION ( #252, #220 ) ;
#248 = APPLICATION_CONTEXT ( 'automotive_design' ) ;
#249 = PRODUCT_RELATED_PRODUCT_CATEGORY ( 'part', '', ( #256 ) ) ;
#250 = PRODUCT_DEFINITION_FORMATION_WITH_SPECIFIED_SOURCE ( 'ANY', '', #256, .NOT_KNOWN. ) ;
#251 = PRODUCT_DEFINITION_CONTEXT ( 'detailed design', #255, 'design' ) ;
#252 = PRODUCT_DEFINITION_SHAPE ( 'NONE', 'NONE',  #253 ) ;
#253 = PRODUCT_DEFINITION ( 'UNKNOWN', '', #250, #251 ) ;
#254 = APPLICATION_PROTOCOL_DEFINITION ( 'draft international standard', 'automotive_design', 1998, #255 ) ;
#255 = APPLICATION_CONTEXT ( 'automotive_design' ) ;
#256 = PRODUCT ( '4480-E0W', '4480-E0W', '', ( #257 ) ) ;
#257 = PRODUCT_CONTEXT ( 'NONE', #248, 'mechanical' ) ;
#258 = APPLICATION_PROTOCOL_DEFINITION ( 'draft international standard', 'automotive_design', 1998, #248 ) ;
#259 = DIRECTION ( 'NONE',  ( 0.0000000000000000000, 0.0000000000000000000, 1.000000000000000000 ) ) ;
#260 = AXIS2_PLACEMENT_3D ( 'NONE', #246, #259, #261 ) ;
#261 = DIRECTION ( 'NONE',  ( 1.000000000000000000, 0.0000000000000000000, 0.0000000000000000000 ) ) ;
ENDSEC;
END-ISO-10303-21;
