ISO-10303-21;
HEADER;
FILE_DESCRIPTION (( 'STEP AP203' ),
    '1' );
FILE_NAME ('Web Model 12661_12661.step',
    '2019-03-20T20:55:23',
    ( '' ),
    ( '' ),
    'SwSTEP 2.0',
    'SolidWorks 2018',
    '' );
FILE_SCHEMA (( 'CONFIG_CONTROL_DESIGN' ));
ENDSEC;

DATA;
#1 = CARTESIAN_POINT ( 'NONE',  ( 0.0000000000000000000, 0.0000000000000000000, 0.0000000000000000000 ) ) ;
#2 = APPROVAL_PERSON_ORGANIZATION ( #32, #112, #82 ) ;
#3 = APPROVAL_STATUS ( 'not_yet_approved' ) ;
#4 = APPLICATION_CONTEXT ( 'configuration controlled 3d designs of mechanical parts and assemblies' ) ;
#5 = PERSON_AND_ORGANIZATION ( #147, #86 ) ;
#6 = CC_DESIGN_DATE_AND_TIME_ASSIGNMENT ( #97, #66, ( #144 ) ) ;
#7 = DATE_AND_TIME ( #108, #44 ) ;
#8 = CC_DESIGN_APPROVAL ( #45, ( #175 ) ) ;
#9 = ADVANCED_BREP_SHAPE_REPRESENTATION ( 'Web Model 12661_12661', ( #109, #39 ), #152 ) ;
#10 = FACE_OUTER_BOUND ( 'NONE', #168, .T. ) ;
#11 = DIRECTION ( 'NONE',  ( 0.0000000000000000000, 0.0000000000000000000, 1.000000000000000000 ) ) ;
#12 = SHAPE_DEFINITION_REPRESENTATION ( #129, #9 ) ;
#13 = CARTESIAN_POINT ( 'NONE',  ( 0.0000000000000000000, 0.0000000000000000000, 3.000000000000000000 ) ) ;
#14 =( NAMED_UNIT ( * ) PLANE_ANGLE_UNIT ( ) SI_UNIT ( $, .RADIAN. ) );
#15 = APPROVAL_DATE_TIME ( #47, #95 ) ;
#16 = CC_DESIGN_PERSON_AND_ORGANIZATION_ASSIGNMENT ( #102, #63, ( #144 ) ) ;
#17 = CALENDAR_DATE ( 2019, 20, 3 ) ;
#18 = CALENDAR_DATE ( 2019, 20, 3 ) ;
#19 = AXIS2_PLACEMENT_3D ( 'NONE', #48, #153, #171 ) ;
#20 = ORIENTED_EDGE ( 'NONE', *, *, #96, .F. ) ;
#21 = CARTESIAN_POINT ( 'NONE',  ( 0.0000000000000000000, 0.0000000000000000000, 3.000000000000000000 ) ) ;
#22 = CARTESIAN_POINT ( 'NONE',  ( 0.0000000000000000000, 0.0000000000000000000, 0.0000000000000000000 ) ) ;
#23 = DIRECTION ( 'NONE',  ( 0.0000000000000000000, 0.0000000000000000000, 1.000000000000000000 ) ) ;
#24 = CLOSED_SHELL ( 'NONE', ( #154, #85, #114, #33 ) ) ;
#25 = VECTOR ( 'NONE', #35, 1000.000000000000000 ) ;
#26 = AXIS2_PLACEMENT_3D ( 'NONE', #46, #173, #116 ) ;
#27 = PERSON_AND_ORGANIZATION_ROLE ( 'design_owner' ) ;
#28 = VERTEX_POINT ( 'NONE', #99 ) ;
#29 = ORIENTED_EDGE ( 'NONE', *, *, #134, .F. ) ;
#30 = CC_DESIGN_APPROVAL ( #112, ( #144 ) ) ;
#31 = ORIENTED_EDGE ( 'NONE', *, *, #134, .T. ) ;
#32 = PERSON_AND_ORGANIZATION ( #147, #86 ) ;
#33 = ADVANCED_FACE ( 'NONE', ( #148 ), #113, .F. ) ;
#34 = PLANE ( 'NONE',  #169 ) ;
#35 = DIRECTION ( 'NONE',  ( -0.0000000000000000000, -0.0000000000000000000, -1.000000000000000000 ) ) ;
#36 = ORIENTED_EDGE ( 'NONE', *, *, #137, .T. ) ;
#37 = APPROVAL_DATE_TIME ( #72, #45 ) ;
#38 =( NAMED_UNIT ( * ) SI_UNIT ( $, .STERADIAN. ) SOLID_ANGLE_UNIT ( ) );
#39 = AXIS2_PLACEMENT_3D ( 'NONE', #120, #161, #54 ) ;
#40 = CYLINDRICAL_SURFACE ( 'NONE', #69, 12.70000000000000462 ) ;
#41 = PERSON_AND_ORGANIZATION_ROLE ( 'design_supplier' ) ;
#42 = ORIENTED_EDGE ( 'NONE', *, *, #80, .F. ) ;
#43 = SECURITY_CLASSIFICATION_LEVEL ( 'unclassified' ) ;
#44 = LOCAL_TIME ( 16, 55, 23.00000000000000000, #119 ) ;
#45 = APPROVAL ( #163, 'UNSPECIFIED' ) ;
#46 = CARTESIAN_POINT ( 'NONE',  ( 0.0000000000000000000, 0.0000000000000000000, 0.0000000000000000000 ) ) ;
#47 = DATE_AND_TIME ( #17, #84 ) ;
#48 = CARTESIAN_POINT ( 'NONE',  ( 0.0000000000000000000, 0.0000000000000000000, 3.000000000000000000 ) ) ;
#49 = CIRCLE ( 'NONE', #88, 12.70000000000000462 ) ;
#50 = CC_DESIGN_PERSON_AND_ORGANIZATION_ASSIGNMENT ( #136, #41, ( #175 ) ) ;
#51 = FACE_OUTER_BOUND ( 'NONE', #141, .T. ) ;
#52 = PRODUCT_DEFINITION ( 'UNKNOWN', '', #175, #100 ) ;
#53 = APPROVAL_ROLE ( '' ) ;
#54 = DIRECTION ( 'NONE',  ( 1.000000000000000000, 0.0000000000000000000, 0.0000000000000000000 ) ) ;
#55 = EDGE_CURVE ( 'NONE', #28, #126, #128, .T. ) ;
#56 = APPROVAL_STATUS ( 'not_yet_approved' ) ;
#57 = COORDINATED_UNIVERSAL_TIME_OFFSET ( 5, 0, .BEHIND. ) ;
#58 = ORIENTED_EDGE ( 'NONE', *, *, #80, .T. ) ;
#59 = CC_DESIGN_SECURITY_CLASSIFICATION ( #144, ( #175 ) ) ;
#60 = COORDINATED_UNIVERSAL_TIME_OFFSET ( 5, 0, .BEHIND. ) ;
#61 = DIRECTION ( 'NONE',  ( -0.0000000000000000000, -0.0000000000000000000, -1.000000000000000000 ) ) ;
#62 = AXIS2_PLACEMENT_3D ( 'NONE', #174, #23, #90 ) ;
#63 = PERSON_AND_ORGANIZATION_ROLE ( 'classification_officer' ) ;
#64 = LOCAL_TIME ( 16, 55, 23.00000000000000000, #68 ) ;
#65 = APPLICATION_PROTOCOL_DEFINITION ( 'international standard', 'config_control_design', 1994, #4 ) ;
#66 = DATE_TIME_ROLE ( 'classification_date' ) ;
#67 = PRODUCT_RELATED_PRODUCT_CATEGORY ( 'detail', '', ( #94 ) ) ;
#68 = COORDINATED_UNIVERSAL_TIME_OFFSET ( 5, 0, .BEHIND. ) ;
#69 = AXIS2_PLACEMENT_3D ( 'NONE', #93, #117, #156 ) ;
#70 = APPROVAL_PERSON_ORGANIZATION ( #104, #45, #53 ) ;
#71 = ORIENTED_EDGE ( 'NONE', *, *, #137, .F. ) ;
#72 = DATE_AND_TIME ( #18, #107 ) ;
#73 = CC_DESIGN_PERSON_AND_ORGANIZATION_ASSIGNMENT ( #5, #146, ( #175 ) ) ;
#74 = PERSON_AND_ORGANIZATION ( #147, #86 ) ;
#75 = VERTEX_POINT ( 'NONE', #138 ) ;
#76 = PERSON_AND_ORGANIZATION ( #147, #86 ) ;
#77 = CC_DESIGN_PERSON_AND_ORGANIZATION_ASSIGNMENT ( #142, #125, ( #52 ) ) ;
#78 =( LENGTH_UNIT ( ) NAMED_UNIT ( * ) SI_UNIT ( .MILLI., .METRE. ) );
#79 = APPROVAL_PERSON_ORGANIZATION ( #74, #95, #133 ) ;
#80 = EDGE_CURVE ( 'NONE', #158, #28, #49, .T. ) ;
#81 = DATE_TIME_ROLE ( 'creation_date' ) ;
#82 = APPROVAL_ROLE ( '' ) ;
#83 = CALENDAR_DATE ( 2019, 20, 3 ) ;
#84 = LOCAL_TIME ( 16, 55, 23.00000000000000000, #60 ) ;
#85 = ADVANCED_FACE ( 'NONE', ( #51 ), #172, .T. ) ;
#86 = ORGANIZATION ( 'UNSPECIFIED', 'UNSPECIFIED', '' ) ;
#87 = CARTESIAN_POINT ( 'NONE',  ( -12.70000000000000462, 0.0000000000000000000, 3.000000000000000000 ) ) ;
#88 = AXIS2_PLACEMENT_3D ( 'NONE', #21, #11, #98 ) ;
#89 = LOCAL_TIME ( 16, 55, 23.00000000000000000, #127 ) ;
#90 = DIRECTION ( 'NONE',  ( 1.000000000000000000, 0.0000000000000000000, 0.0000000000000000000 ) ) ;
#91 = DIRECTION ( 'NONE',  ( 1.000000000000000000, 0.0000000000000000000, 0.0000000000000000000 ) ) ;
#92 = DIRECTION ( 'NONE',  ( 0.0000000000000000000, 0.0000000000000000000, 1.000000000000000000 ) ) ;
#93 = CARTESIAN_POINT ( 'NONE',  ( 0.0000000000000000000, 0.0000000000000000000, 3.000000000000000000 ) ) ;
#94 = PRODUCT ( 'Web Model 12661_12661', 'Web Model 12661_12661', '', ( #162 ) ) ;
#95 = APPROVAL ( #56, 'UNSPECIFIED' ) ;
#96 = EDGE_CURVE ( 'NONE', #126, #75, #150, .T. ) ;
#97 = DATE_AND_TIME ( #83, #64 ) ;
#98 = DIRECTION ( 'NONE',  ( 1.000000000000000000, 0.0000000000000000000, 0.0000000000000000000 ) ) ;
#99 = CARTESIAN_POINT ( 'NONE',  ( -12.70000000000000462, 0.0000000000000000000, 3.000000000000000000 ) ) ;
#100 = DESIGN_CONTEXT ( 'detailed design', #4, 'design' ) ;
#101 = ORIENTED_EDGE ( 'NONE', *, *, #155, .T. ) ;
#102 = PERSON_AND_ORGANIZATION ( #147, #86 ) ;
#103 = CARTESIAN_POINT ( 'NONE',  ( 12.70000000000000462, 1.555301434917139024E-15, 3.000000000000000000 ) ) ;
#104 = PERSON_AND_ORGANIZATION ( #147, #86 ) ;
#105 = APPLICATION_PROTOCOL_DEFINITION ( 'international standard', 'config_control_design', 1994, #124 ) ;
#106 = CALENDAR_DATE ( 2019, 20, 3 ) ;
#107 = LOCAL_TIME ( 16, 55, 23.00000000000000000, #57 ) ;
#108 = CALENDAR_DATE ( 2019, 20, 3 ) ;
#109 = MANIFOLD_SOLID_BREP ( '84715410-1-solid1', #24 ) ;
#110 = EDGE_LOOP ( 'NONE', ( #20, #151 ) ) ;
#111 = FACE_OUTER_BOUND ( 'NONE', #166, .T. ) ;
#112 = APPROVAL ( #3, 'UNSPECIFIED' ) ;
#113 = PLANE ( 'NONE',  #26 ) ;
#114 = ADVANCED_FACE ( 'NONE', ( #10 ), #34, .T. ) ;
#115 = LINE ( 'NONE', #103, #159 ) ;
#116 = DIRECTION ( 'NONE',  ( 1.000000000000000000, 0.0000000000000000000, -0.0000000000000000000 ) ) ;
#117 = DIRECTION ( 'NONE',  ( -0.0000000000000000000, -0.0000000000000000000, -1.000000000000000000 ) ) ;
#118 = DIRECTION ( 'NONE',  ( 0.0000000000000000000, 0.0000000000000000000, 1.000000000000000000 ) ) ;
#119 = COORDINATED_UNIVERSAL_TIME_OFFSET ( 5, 0, .BEHIND. ) ;
#120 = CARTESIAN_POINT ( 'NONE',  ( 0.0000000000000000000, 0.0000000000000000000, 0.0000000000000000000 ) ) ;
#121 = DIRECTION ( 'NONE',  ( 1.000000000000000000, 0.0000000000000000000, 0.0000000000000000000 ) ) ;
#122 = DIRECTION ( 'NONE',  ( 0.0000000000000000000, 0.0000000000000000000, 1.000000000000000000 ) ) ;
#123 = AXIS2_PLACEMENT_3D ( 'NONE', #1, #92, #91 ) ;
#124 = APPLICATION_CONTEXT ( 'configuration controlled 3d designs of mechanical parts and assemblies' ) ;
#125 = PERSON_AND_ORGANIZATION_ROLE ( 'creator' ) ;
#126 = VERTEX_POINT ( 'NONE', #143 ) ;
#127 = COORDINATED_UNIVERSAL_TIME_OFFSET ( 5, 0, .BEHIND. ) ;
#128 = LINE ( 'NONE', #87, #25 ) ;
#129 = PRODUCT_DEFINITION_SHAPE ( 'NONE', 'NONE',  #52 ) ;
#130 = CARTESIAN_POINT ( 'NONE',  ( 12.70000000000000462, 1.555301434917139024E-15, 3.000000000000000000 ) ) ;
#131 = DIRECTION ( 'NONE',  ( 1.000000000000000000, 0.0000000000000000000, -0.0000000000000000000 ) ) ;
#132 = ORIENTED_EDGE ( 'NONE', *, *, #55, .F. ) ;
#133 = APPROVAL_ROLE ( '' ) ;
#134 = EDGE_CURVE ( 'NONE', #158, #75, #115, .T. ) ;
#135 = ORIENTED_EDGE ( 'NONE', *, *, #96, .T. ) ;
#136 = PERSON_AND_ORGANIZATION ( #147, #86 ) ;
#137 = EDGE_CURVE ( 'NONE', #28, #158, #145, .T. ) ;
#138 = CARTESIAN_POINT ( 'NONE',  ( 12.70000000000000462, 1.555301434917139024E-15, 0.0000000000000000000 ) ) ;
#139 = CIRCLE ( 'NONE', #140, 12.70000000000000462 ) ;
#140 = AXIS2_PLACEMENT_3D ( 'NONE', #22, #118, #121 ) ;
#141 = EDGE_LOOP ( 'NONE', ( #29, #71, #165, #135 ) ) ;
#142 = PERSON_AND_ORGANIZATION ( #147, #86 ) ;
#143 = CARTESIAN_POINT ( 'NONE',  ( -12.70000000000000462, 0.0000000000000000000, 0.0000000000000000000 ) ) ;
#144 = SECURITY_CLASSIFICATION ( '', '', #43 ) ;
#145 = CIRCLE ( 'NONE', #62, 12.70000000000000462 ) ;
#146 = PERSON_AND_ORGANIZATION_ROLE ( 'creator' ) ;
#147 = PERSON ( 'UNSPECIFIED', 'UNSPECIFIED', 'UNSPECIFIED', ('UNSPECIFIED'), ('UNSPECIFIED'), ('UNSPECIFIED') ) ;
#148 = FACE_OUTER_BOUND ( 'NONE', #110, .T. ) ;
#149 = CC_DESIGN_DATE_AND_TIME_ASSIGNMENT ( #7, #81, ( #52 ) ) ;
#150 = CIRCLE ( 'NONE', #123, 12.70000000000000462 ) ;
#151 = ORIENTED_EDGE ( 'NONE', *, *, #155, .F. ) ;
#152 =( GEOMETRIC_REPRESENTATION_CONTEXT ( 3 ) GLOBAL_UNCERTAINTY_ASSIGNED_CONTEXT ( ( #160 ) ) GLOBAL_UNIT_ASSIGNED_CONTEXT ( ( #78, #14, #38 ) ) REPRESENTATION_CONTEXT ( 'NONE', 'WORKASPACE' ) );
#153 = DIRECTION ( 'NONE',  ( -0.0000000000000000000, -0.0000000000000000000, -1.000000000000000000 ) ) ;
#154 = ADVANCED_FACE ( 'NONE', ( #111 ), #40, .T. ) ;
#155 = EDGE_CURVE ( 'NONE', #75, #126, #139, .T. ) ;
#156 = DIRECTION ( 'NONE',  ( -1.000000000000000000, 0.0000000000000000000, 0.0000000000000000000 ) ) ;
#157 = CC_DESIGN_APPROVAL ( #95, ( #52 ) ) ;
#158 = VERTEX_POINT ( 'NONE', #130 ) ;
#159 = VECTOR ( 'NONE', #61, 1000.000000000000000 ) ;
#160 = UNCERTAINTY_MEASURE_WITH_UNIT (LENGTH_MEASURE( 1.000000000000000082E-05 ), #78, 'distance_accuracy_value', 'NONE');
#161 = DIRECTION ( 'NONE',  ( 0.0000000000000000000, 0.0000000000000000000, 1.000000000000000000 ) ) ;
#162 = MECHANICAL_CONTEXT ( 'NONE', #124, 'mechanical' ) ;
#163 = APPROVAL_STATUS ( 'not_yet_approved' ) ;
#164 = CC_DESIGN_PERSON_AND_ORGANIZATION_ASSIGNMENT ( #76, #27, ( #94 ) ) ;
#165 = ORIENTED_EDGE ( 'NONE', *, *, #55, .T. ) ;
#166 = EDGE_LOOP ( 'NONE', ( #42, #31, #101, #132 ) ) ;
#167 = APPROVAL_DATE_TIME ( #170, #112 ) ;
#168 = EDGE_LOOP ( 'NONE', ( #36, #58 ) ) ;
#169 = AXIS2_PLACEMENT_3D ( 'NONE', #13, #122, #131 ) ;
#170 = DATE_AND_TIME ( #106, #89 ) ;
#171 = DIRECTION ( 'NONE',  ( -1.000000000000000000, 0.0000000000000000000, 0.0000000000000000000 ) ) ;
#172 = CYLINDRICAL_SURFACE ( 'NONE', #19, 12.70000000000000462 ) ;
#173 = DIRECTION ( 'NONE',  ( 0.0000000000000000000, 0.0000000000000000000, 1.000000000000000000 ) ) ;
#174 = CARTESIAN_POINT ( 'NONE',  ( 0.0000000000000000000, 0.0000000000000000000, 3.000000000000000000 ) ) ;
#175 = PRODUCT_DEFINITION_FORMATION_WITH_SPECIFIED_SOURCE ( 'ANY', '', #94, .NOT_KNOWN. ) ;
ENDSEC;
END-ISO-10303-21;
