ISO-10303-21;
HEADER;
FILE_DESCRIPTION (( 'STEP AP203' ),
    '1' );
FILE_NAME ('Web Model 17216_17216.step',
    '2021-04-08T13:25:58',
    ( '' ),
    ( '' ),
    'SwSTEP 2.0',
    'SolidWorks 2018',
    '' );
FILE_SCHEMA (( 'CONFIG_CONTROL_DESIGN' ));
ENDSEC;

DATA;
#1 = APPROVAL_PERSON_ORGANIZATION ( #111, #67, #132 ) ;
#2 = CC_DESIGN_APPROVAL ( #37, ( #50 ) ) ;
#3 = CALENDAR_DATE ( 2021, 8, 4 ) ;
#4 = EDGE_CURVE ( 'NONE', #115, #74, #30, .T. ) ;
#5 = CARTESIAN_POINT ( 'NONE',  ( 0.000000000000000000, 0.000000000000000000, 0.5000000000000000000 ) ) ;
#6 = CIRCLE ( 'NONE', #165, 0.5000000000000000000 ) ;
#7 = CARTESIAN_POINT ( 'NONE',  ( 0.000000000000000000, 0.000000000000000000, 0.000000000000000000 ) ) ;
#8 = CARTESIAN_POINT ( 'NONE',  ( -0.5000000000000000000, 0.000000000000000000, 0.5000000000000000000 ) ) ;
#9 = DIRECTION ( 'NONE',  ( -0.000000000000000000, -0.000000000000000000, -1.000000000000000000 ) ) ;
#10 = PERSON_AND_ORGANIZATION ( #40, #108 ) ;
#11 = MANIFOLD_SOLID_BREP ( 'Boss-Extrude1', #45 ) ;
#12 = APPROVAL_STATUS ( 'not_yet_approved' ) ;
#13 = DATE_AND_TIME ( #172, #35 ) ;
#14 = APPLICATION_CONTEXT ( 'configuration controlled 3d designs of mechanical parts and assemblies' ) ;
#15 = CARTESIAN_POINT ( 'NONE',  ( 0.000000000000000000, 0.000000000000000000, 0.000000000000000000 ) ) ;
#16 = ORIENTED_EDGE ( 'NONE', *, *, #160, .T. ) ;
#17 = LOCAL_TIME ( 9, 25, 58.00000000000000000, #33 ) ;
#18 = FACE_OUTER_BOUND ( 'NONE', #170, .T. ) ;
#19 = COORDINATED_UNIVERSAL_TIME_OFFSET ( 5, 0, .BEHIND. ) ;
#20 = CARTESIAN_POINT ( 'NONE',  ( 0.000000000000000000, 0.000000000000000000, 0.5000000000000000000 ) ) ;
#21 = ADVANCED_FACE ( 'NONE', ( #79 ), #90, .T. ) ;
#22 = ADVANCED_FACE ( 'NONE', ( #18 ), #147, .T. ) ;
#23 =( NAMED_UNIT ( * ) PLANE_ANGLE_UNIT ( ) SI_UNIT ( $, .RADIAN. ) );
#24 = CALENDAR_DATE ( 2021, 8, 4 ) ;
#25 = DATE_TIME_ROLE ( 'creation_date' ) ;
#26 = EDGE_CURVE ( 'NONE', #128, #115, #64, .T. ) ;
#27 = ORIENTED_EDGE ( 'NONE', *, *, #36, .F. ) ;
#28 = CC_DESIGN_PERSON_AND_ORGANIZATION_ASSIGNMENT ( #81, #42, ( #47 ) ) ;
#29 = UNCERTAINTY_MEASURE_WITH_UNIT (LENGTH_MEASURE( 1.000000000000000082E-05 ), #167, 'distance_accuracy_value', 'NONE');
#30 = LINE ( 'NONE', #141, #129 ) ;
#31 = ORIENTED_EDGE ( 'NONE', *, *, #4, .F. ) ;
#32 = PERSON_AND_ORGANIZATION ( #40, #108 ) ;
#33 = COORDINATED_UNIVERSAL_TIME_OFFSET ( 5, 0, .BEHIND. ) ;
#34 = DIRECTION ( 'NONE',  ( 0.000000000000000000, 0.000000000000000000, 1.000000000000000000 ) ) ;
#35 = LOCAL_TIME ( 9, 25, 58.00000000000000000, #55 ) ;
#36 = EDGE_CURVE ( 'NONE', #74, #163, #6, .T. ) ;
#37 = APPROVAL ( #12, 'UNSPECIFIED' ) ;
#38 = ORIENTED_EDGE ( 'NONE', *, *, #78, .T. ) ;
#39 = MECHANICAL_CONTEXT ( 'NONE', #14, 'mechanical' ) ;
#40 = PERSON ( 'UNSPECIFIED', 'UNSPECIFIED', 'UNSPECIFIED', ('UNSPECIFIED'), ('UNSPECIFIED'), ('UNSPECIFIED') ) ;
#41 = APPLICATION_PROTOCOL_DEFINITION ( 'international standard', 'config_control_design', 1994, #14 ) ;
#42 = PERSON_AND_ORGANIZATION_ROLE ( 'design_owner' ) ;
#43 = COORDINATED_UNIVERSAL_TIME_OFFSET ( 5, 0, .BEHIND. ) ;
#44 = CIRCLE ( 'NONE', #114, 0.5000000000000000000 ) ;
#45 = CLOSED_SHELL ( 'NONE', ( #21, #22, #75, #73 ) ) ;
#46 = CARTESIAN_POINT ( 'NONE',  ( 0.000000000000000000, 0.000000000000000000, 0.5000000000000000000 ) ) ;
#47 = PRODUCT ( 'Web Model 17216_17216', 'Web Model 17216_17216', '', ( #39 ) ) ;
#48 = EDGE_LOOP ( 'NONE', ( #93, #16 ) ) ;
#49 = AXIS2_PLACEMENT_3D ( 'NONE', #20, #69, #84 ) ;
#50 = PRODUCT_DEFINITION ( 'UNKNOWN', '', #152, #117 ) ;
#51 = PERSON_AND_ORGANIZATION ( #40, #108 ) ;
#52 = AXIS2_PLACEMENT_3D ( 'NONE', #7, #86, #146 ) ;
#53 = DATE_AND_TIME ( #159, #174 ) ;
#54 = AXIS2_PLACEMENT_3D ( 'NONE', #85, #34, #58 ) ;
#55 = COORDINATED_UNIVERSAL_TIME_OFFSET ( 5, 0, .BEHIND. ) ;
#56 = CARTESIAN_POINT ( 'NONE',  ( 0.000000000000000000, 0.000000000000000000, 0.5000000000000000000 ) ) ;
#57 = CARTESIAN_POINT ( 'NONE',  ( 0.000000000000000000, 0.000000000000000000, 0.5000000000000000000 ) ) ;
#58 = DIRECTION ( 'NONE',  ( 1.000000000000000000, 0.000000000000000000, -0.000000000000000000 ) ) ;
#59 = CC_DESIGN_DATE_AND_TIME_ASSIGNMENT ( #124, #25, ( #50 ) ) ;
#60 = DIRECTION ( 'NONE',  ( 1.000000000000000000, 0.000000000000000000, 0.000000000000000000 ) ) ;
#61 = APPROVAL_ROLE ( '' ) ;
#62 = ORIENTED_EDGE ( 'NONE', *, *, #78, .F. ) ;
#63 = SECURITY_CLASSIFICATION_LEVEL ( 'unclassified' ) ;
#64 = CIRCLE ( 'NONE', #104, 0.5000000000000000000 ) ;
#65 = ORIENTED_EDGE ( 'NONE', *, *, #26, .F. ) ;
#66 = DATE_AND_TIME ( #3, #136 ) ;
#67 = APPROVAL ( #173, 'UNSPECIFIED' ) ;
#68 = ORIENTED_EDGE ( 'NONE', *, *, #36, .T. ) ;
#69 = DIRECTION ( 'NONE',  ( 0.000000000000000000, 0.000000000000000000, 1.000000000000000000 ) ) ;
#70 = LINE ( 'NONE', #116, #161 ) ;
#71 = CARTESIAN_POINT ( 'NONE',  ( -0.5000000000000000000, 0.000000000000000000, 0.000000000000000000 ) ) ;
#72 = CARTESIAN_POINT ( 'NONE',  ( 0.5000000000000000000, 6.123233995736766036E-17, 0.5000000000000000000 ) ) ;
#73 = ADVANCED_FACE ( 'NONE', ( #110 ), #142, .F. ) ;
#74 = VERTEX_POINT ( 'NONE', #153 ) ;
#75 = ADVANCED_FACE ( 'NONE', ( #166 ), #126, .T. ) ;
#76 = CC_DESIGN_PERSON_AND_ORGANIZATION_ASSIGNMENT ( #109, #77, ( #152 ) ) ;
#77 = PERSON_AND_ORGANIZATION_ROLE ( 'creator' ) ;
#78 = EDGE_CURVE ( 'NONE', #128, #163, #70, .T. ) ;
#79 = FACE_OUTER_BOUND ( 'NONE', #119, .T. ) ;
#80 = SECURITY_CLASSIFICATION ( '', '', #63 ) ;
#81 = PERSON_AND_ORGANIZATION ( #40, #108 ) ;
#82 = APPROVAL_DATE_TIME ( #13, #67 ) ;
#83 = CC_DESIGN_SECURITY_CLASSIFICATION ( #80, ( #152 ) ) ;
#84 = DIRECTION ( 'NONE',  ( 1.000000000000000000, 0.000000000000000000, -0.000000000000000000 ) ) ;
#85 = CARTESIAN_POINT ( 'NONE',  ( 0.000000000000000000, 0.000000000000000000, 0.000000000000000000 ) ) ;
#86 = DIRECTION ( 'NONE',  ( 0.000000000000000000, 0.000000000000000000, 1.000000000000000000 ) ) ;
#87 = DIRECTION ( 'NONE',  ( 1.000000000000000000, 0.000000000000000000, 0.000000000000000000 ) ) ;
#88 = APPROVAL_DATE_TIME ( #53, #37 ) ;
#89 = PRODUCT_DEFINITION_SHAPE ( 'NONE', 'NONE',  #50 ) ;
#90 = CYLINDRICAL_SURFACE ( 'NONE', #133, 0.5000000000000000000 ) ;
#91 = LOCAL_TIME ( 9, 25, 58.00000000000000000, #19 ) ;
#92 = AXIS2_PLACEMENT_3D ( 'NONE', #46, #154, #87 ) ;
#93 = ORIENTED_EDGE ( 'NONE', *, *, #26, .T. ) ;
#94 = APPROVAL ( #120, 'UNSPECIFIED' ) ;
#95 = ORIENTED_EDGE ( 'NONE', *, *, #127, .T. ) ;
#96 = APPROVAL_PERSON_ORGANIZATION ( #32, #94, #100 ) ;
#97 = DIRECTION ( 'NONE',  ( 1.000000000000000000, 0.000000000000000000, 0.000000000000000000 ) ) ;
#98 = DIRECTION ( 'NONE',  ( -1.000000000000000000, 0.000000000000000000, 0.000000000000000000 ) ) ;
#99 = DIRECTION ( 'NONE',  ( -0.000000000000000000, -0.000000000000000000, -1.000000000000000000 ) ) ;
#100 = APPROVAL_ROLE ( '' ) ;
#101 = CC_DESIGN_APPROVAL ( #94, ( #152 ) ) ;
#102 = PERSON_AND_ORGANIZATION_ROLE ( 'creator' ) ;
#103 =( NAMED_UNIT ( * ) SI_UNIT ( $, .STERADIAN. ) SOLID_ANGLE_UNIT ( ) );
#104 = AXIS2_PLACEMENT_3D ( 'NONE', #5, #150, #97 ) ;
#105 = APPROVAL_PERSON_ORGANIZATION ( #10, #37, #61 ) ;
#106 = PERSON_AND_ORGANIZATION ( #40, #108 ) ;
#107 = PRODUCT_RELATED_PRODUCT_CATEGORY ( 'detail', '', ( #47 ) ) ;
#108 = ORGANIZATION ( 'UNSPECIFIED', 'UNSPECIFIED', '' ) ;
#109 = PERSON_AND_ORGANIZATION ( #40, #108 ) ;
#110 = FACE_OUTER_BOUND ( 'NONE', #157, .T. ) ;
#111 = PERSON_AND_ORGANIZATION ( #40, #108 ) ;
#112 = CC_DESIGN_PERSON_AND_ORGANIZATION_ASSIGNMENT ( #106, #145, ( #80 ) ) ;
#113 = APPROVAL_DATE_TIME ( #175, #94 ) ;
#114 = AXIS2_PLACEMENT_3D ( 'NONE', #15, #171, #60 ) ;
#115 = VERTEX_POINT ( 'NONE', #72 ) ;
#116 = CARTESIAN_POINT ( 'NONE',  ( -0.5000000000000000000, 0.000000000000000000, 0.5000000000000000000 ) ) ;
#117 = DESIGN_CONTEXT ( 'detailed design', #144, 'design' ) ;
#118 = DIRECTION ( 'NONE',  ( 0.000000000000000000, 0.000000000000000000, 1.000000000000000000 ) ) ;
#119 = EDGE_LOOP ( 'NONE', ( #135, #139, #68, #62 ) ) ;
#120 = APPROVAL_STATUS ( 'not_yet_approved' ) ;
#121 = SHAPE_DEFINITION_REPRESENTATION ( #89, #164 ) ;
#122 =( GEOMETRIC_REPRESENTATION_CONTEXT ( 3 ) GLOBAL_UNCERTAINTY_ASSIGNED_CONTEXT ( ( #29 ) ) GLOBAL_UNIT_ASSIGNED_CONTEXT ( ( #167, #23, #103 ) ) REPRESENTATION_CONTEXT ( 'NONE', 'WORKASPACE' ) );
#123 = CC_DESIGN_PERSON_AND_ORGANIZATION_ASSIGNMENT ( #51, #102, ( #50 ) ) ;
#124 = DATE_AND_TIME ( #24, #91 ) ;
#125 = CARTESIAN_POINT ( 'NONE',  ( 0.000000000000000000, 0.000000000000000000, 0.000000000000000000 ) ) ;
#126 = PLANE ( 'NONE',  #49 ) ;
#127 = EDGE_CURVE ( 'NONE', #163, #74, #44, .T. ) ;
#128 = VERTEX_POINT ( 'NONE', #8 ) ;
#129 = VECTOR ( 'NONE', #149, 1000.000000000000000 ) ;
#130 = PERSON_AND_ORGANIZATION_ROLE ( 'design_supplier' ) ;
#131 = CC_DESIGN_APPROVAL ( #67, ( #80 ) ) ;
#132 = APPROVAL_ROLE ( '' ) ;
#133 = AXIS2_PLACEMENT_3D ( 'NONE', #57, #140, #98 ) ;
#134 = CC_DESIGN_DATE_AND_TIME_ASSIGNMENT ( #66, #156, ( #80 ) ) ;
#135 = ORIENTED_EDGE ( 'NONE', *, *, #160, .F. ) ;
#136 = LOCAL_TIME ( 9, 25, 58.00000000000000000, #158 ) ;
#137 = PERSON_AND_ORGANIZATION ( #40, #108 ) ;
#138 = DIRECTION ( 'NONE',  ( 1.000000000000000000, 0.000000000000000000, 0.000000000000000000 ) ) ;
#139 = ORIENTED_EDGE ( 'NONE', *, *, #4, .T. ) ;
#140 = DIRECTION ( 'NONE',  ( -0.000000000000000000, -0.000000000000000000, -1.000000000000000000 ) ) ;
#141 = CARTESIAN_POINT ( 'NONE',  ( 0.5000000000000000000, 6.123233995736766036E-17, 0.5000000000000000000 ) ) ;
#142 = PLANE ( 'NONE',  #54 ) ;
#143 = ORIENTED_EDGE ( 'NONE', *, *, #127, .F. ) ;
#144 = APPLICATION_CONTEXT ( 'configuration controlled 3d designs of mechanical parts and assemblies' ) ;
#145 = PERSON_AND_ORGANIZATION_ROLE ( 'classification_officer' ) ;
#146 = DIRECTION ( 'NONE',  ( 1.000000000000000000, 0.000000000000000000, 0.000000000000000000 ) ) ;
#147 = CYLINDRICAL_SURFACE ( 'NONE', #162, 0.5000000000000000000 ) ;
#148 = CIRCLE ( 'NONE', #92, 0.5000000000000000000 ) ;
#149 = DIRECTION ( 'NONE',  ( -0.000000000000000000, -0.000000000000000000, -1.000000000000000000 ) ) ;
#150 = DIRECTION ( 'NONE',  ( 0.000000000000000000, 0.000000000000000000, 1.000000000000000000 ) ) ;
#151 = DIRECTION ( 'NONE',  ( -1.000000000000000000, 0.000000000000000000, 0.000000000000000000 ) ) ;
#152 = PRODUCT_DEFINITION_FORMATION_WITH_SPECIFIED_SOURCE ( 'ANY', '', #47, .NOT_KNOWN. ) ;
#153 = CARTESIAN_POINT ( 'NONE',  ( 0.5000000000000000000, 6.123233995736766036E-17, 0.000000000000000000 ) ) ;
#154 = DIRECTION ( 'NONE',  ( 0.000000000000000000, 0.000000000000000000, 1.000000000000000000 ) ) ;
#155 = CALENDAR_DATE ( 2021, 8, 4 ) ;
#156 = DATE_TIME_ROLE ( 'classification_date' ) ;
#157 = EDGE_LOOP ( 'NONE', ( #143, #27 ) ) ;
#158 = COORDINATED_UNIVERSAL_TIME_OFFSET ( 5, 0, .BEHIND. ) ;
#159 = CALENDAR_DATE ( 2021, 8, 4 ) ;
#160 = EDGE_CURVE ( 'NONE', #115, #128, #148, .T. ) ;
#161 = VECTOR ( 'NONE', #99, 1000.000000000000000 ) ;
#162 = AXIS2_PLACEMENT_3D ( 'NONE', #56, #9, #151 ) ;
#163 = VERTEX_POINT ( 'NONE', #71 ) ;
#164 = ADVANCED_BREP_SHAPE_REPRESENTATION ( 'Web Model 17216_17216', ( #11, #52 ), #122 ) ;
#165 = AXIS2_PLACEMENT_3D ( 'NONE', #125, #118, #138 ) ;
#166 = FACE_OUTER_BOUND ( 'NONE', #48, .T. ) ;
#167 =( LENGTH_UNIT ( ) NAMED_UNIT ( * ) SI_UNIT ( .MILLI., .METRE. ) );
#168 = APPLICATION_PROTOCOL_DEFINITION ( 'international standard', 'config_control_design', 1994, #144 ) ;
#169 = CC_DESIGN_PERSON_AND_ORGANIZATION_ASSIGNMENT ( #137, #130, ( #152 ) ) ;
#170 = EDGE_LOOP ( 'NONE', ( #31, #65, #38, #95 ) ) ;
#171 = DIRECTION ( 'NONE',  ( 0.000000000000000000, 0.000000000000000000, 1.000000000000000000 ) ) ;
#172 = CALENDAR_DATE ( 2021, 8, 4 ) ;
#173 = APPROVAL_STATUS ( 'not_yet_approved' ) ;
#174 = LOCAL_TIME ( 9, 25, 58.00000000000000000, #43 ) ;
#175 = DATE_AND_TIME ( #155, #17 ) ;
ENDSEC;
END-ISO-10303-21;
