ISO-10303-21;
HEADER;
FILE_DESCRIPTION (( 'STEP AP203' ),
    '1' );
FILE_NAME ('Web Model 45817_15999.step',
    '2020-10-21T18:31:24',
    ( '' ),
    ( '' ),
    'SwSTEP 2.0',
    'SolidWorks 2018',
    '' );
FILE_SCHEMA (( 'CONFIG_CONTROL_DESIGN' ));
ENDSEC;

DATA;
#1 = PERSON_AND_ORGANIZATION ( #71, #32 ) ;
#2 = AXIS2_PLACEMENT_3D ( 'NONE', #10, #159, #62 ) ;
#3 = ORIENTED_EDGE ( 'NONE', *, *, #122, .T. ) ;
#4 = CALENDAR_DATE ( 2020, 21, 10 ) ;
#5 = ADVANCED_FACE ( 'NONE', ( #169 ), #20, .F. ) ;
#6 = DATE_AND_TIME ( #173, #54 ) ;
#7 = CARTESIAN_POINT ( 'NONE',  ( 25.39999999999999858, 3.110602869834276076E-15, 0.0000000000000000000 ) ) ;
#8 = DIRECTION ( 'NONE',  ( -0.0000000000000000000, -0.0000000000000000000, -1.000000000000000000 ) ) ;
#9 = MECHANICAL_CONTEXT ( 'NONE', #23, 'mechanical' ) ;
#10 = CARTESIAN_POINT ( 'NONE',  ( 0.0000000000000000000, 0.0000000000000000000, 0.0000000000000000000 ) ) ;
#11 = APPROVAL ( #25, 'UNSPECIFIED' ) ;
#12 = CC_DESIGN_DATE_AND_TIME_ASSIGNMENT ( #6, #65, ( #92 ) ) ;
#13 = EDGE_LOOP ( 'NONE', ( #66, #143 ) ) ;
#14 = PERSON_AND_ORGANIZATION ( #71, #32 ) ;
#15 = CYLINDRICAL_SURFACE ( 'NONE', #164, 25.39999999999999858 ) ;
#16 = COORDINATED_UNIVERSAL_TIME_OFFSET ( 5, 0, .BEHIND. ) ;
#17 = CC_DESIGN_APPROVAL ( #11, ( #92 ) ) ;
#18 = MANIFOLD_SOLID_BREP ( 'Boss-Extrude1', #124 ) ;
#19 = VECTOR ( 'NONE', #8, 1000.000000000000000 ) ;
#20 = PLANE ( 'NONE',  #163 ) ;
#21 = AXIS2_PLACEMENT_3D ( 'NONE', #76, #149, #148 ) ;
#22 = CARTESIAN_POINT ( 'NONE',  ( -25.39999999999999858, 0.0000000000000000000, 0.0000000000000000000 ) ) ;
#23 = APPLICATION_CONTEXT ( 'configuration controlled 3d designs of mechanical parts and assemblies' ) ;
#24 = APPROVAL_ROLE ( '' ) ;
#25 = APPROVAL_STATUS ( 'not_yet_approved' ) ;
#26 = DATE_AND_TIME ( #137, #110 ) ;
#27 = ORIENTED_EDGE ( 'NONE', *, *, #29, .F. ) ;
#28 = CALENDAR_DATE ( 2020, 21, 10 ) ;
#29 = EDGE_CURVE ( 'NONE', #94, #104, #51, .T. ) ;
#30 = CC_DESIGN_PERSON_AND_ORGANIZATION_ASSIGNMENT ( #134, #130, ( #57 ) ) ;
#31 = EDGE_LOOP ( 'NONE', ( #135, #27 ) ) ;
#32 = ORGANIZATION ( 'UNSPECIFIED', 'UNSPECIFIED', '' ) ;
#33 = DIRECTION ( 'NONE',  ( 1.000000000000000000, 0.0000000000000000000, 0.0000000000000000000 ) ) ;
#34 = CARTESIAN_POINT ( 'NONE',  ( 25.39999999999999858, 3.110602869834276076E-15, 3.180000000000000160 ) ) ;
#35 = ORIENTED_EDGE ( 'NONE', *, *, #122, .F. ) ;
#36 = CARTESIAN_POINT ( 'NONE',  ( 0.0000000000000000000, 0.0000000000000000000, 3.180000000000000160 ) ) ;
#37 = DIRECTION ( 'NONE',  ( -1.000000000000000000, 0.0000000000000000000, 0.0000000000000000000 ) ) ;
#38 = APPLICATION_PROTOCOL_DEFINITION ( 'international standard', 'config_control_design', 1994, #23 ) ;
#39 = DATE_AND_TIME ( #4, #121 ) ;
#40 = ORIENTED_EDGE ( 'NONE', *, *, #77, .T. ) ;
#41 = SECURITY_CLASSIFICATION_LEVEL ( 'unclassified' ) ;
#42 = APPROVAL_PERSON_ORGANIZATION ( #127, #53, #24 ) ;
#43 = LINE ( 'NONE', #112, #118 ) ;
#44 = EDGE_CURVE ( 'NONE', #87, #70, #154, .T. ) ;
#45 =( GEOMETRIC_REPRESENTATION_CONTEXT ( 3 ) GLOBAL_UNCERTAINTY_ASSIGNED_CONTEXT ( ( #67 ) ) GLOBAL_UNIT_ASSIGNED_CONTEXT ( ( #74, #102, #113 ) ) REPRESENTATION_CONTEXT ( 'NONE', 'WORKASPACE' ) );
#46 = EDGE_LOOP ( 'NONE', ( #101, #40, #60, #35 ) ) ;
#47 = PLANE ( 'NONE',  #100 ) ;
#48 = LINE ( 'NONE', #129, #19 ) ;
#49 = APPROVAL_ROLE ( '' ) ;
#50 = APPROVAL_DATE_TIME ( #26, #11 ) ;
#51 = CIRCLE ( 'NONE', #150, 25.39999999999999858 ) ;
#52 = ORIENTED_EDGE ( 'NONE', *, *, #144, .T. ) ;
#53 = APPROVAL ( #86, 'UNSPECIFIED' ) ;
#54 = LOCAL_TIME ( 14, 31, 24.00000000000000000, #69 ) ;
#55 = ORIENTED_EDGE ( 'NONE', *, *, #77, .F. ) ;
#56 = ADVANCED_FACE ( 'NONE', ( #128 ), #117, .T. ) ;
#57 = PRODUCT ( 'Web Model 45817_15999', 'Web Model 45817_15999', '', ( #9 ) ) ;
#58 = DIRECTION ( 'NONE',  ( 0.0000000000000000000, 0.0000000000000000000, 1.000000000000000000 ) ) ;
#59 = DIRECTION ( 'NONE',  ( 0.0000000000000000000, 0.0000000000000000000, 1.000000000000000000 ) ) ;
#60 = ORIENTED_EDGE ( 'NONE', *, *, #29, .T. ) ;
#61 = PRODUCT_RELATED_PRODUCT_CATEGORY ( 'detail', '', ( #57 ) ) ;
#62 = DIRECTION ( 'NONE',  ( 1.000000000000000000, 0.0000000000000000000, 0.0000000000000000000 ) ) ;
#63 = DATE_AND_TIME ( #28, #95 ) ;
#64 = CC_DESIGN_APPROVAL ( #151, ( #105 ) ) ;
#65 = DATE_TIME_ROLE ( 'classification_date' ) ;
#66 = ORIENTED_EDGE ( 'NONE', *, *, #44, .T. ) ;
#67 = UNCERTAINTY_MEASURE_WITH_UNIT (LENGTH_MEASURE( 1.000000000000000082E-05 ), #74, 'distance_accuracy_value', 'NONE');
#68 = CC_DESIGN_SECURITY_CLASSIFICATION ( #92, ( #105 ) ) ;
#69 = COORDINATED_UNIVERSAL_TIME_OFFSET ( 5, 0, .BEHIND. ) ;
#70 = VERTEX_POINT ( 'NONE', #34 ) ;
#71 = PERSON ( 'UNSPECIFIED', 'UNSPECIFIED', 'UNSPECIFIED', ('UNSPECIFIED'), ('UNSPECIFIED'), ('UNSPECIFIED') ) ;
#72 = DIRECTION ( 'NONE',  ( 0.0000000000000000000, 0.0000000000000000000, 1.000000000000000000 ) ) ;
#73 = SHAPE_DEFINITION_REPRESENTATION ( #81, #153 ) ;
#74 =( LENGTH_UNIT ( ) NAMED_UNIT ( * ) SI_UNIT ( .MILLI., .METRE. ) );
#75 = APPLICATION_CONTEXT ( 'configuration controlled 3d designs of mechanical parts and assemblies' ) ;
#76 = CARTESIAN_POINT ( 'NONE',  ( 0.0000000000000000000, 0.0000000000000000000, 0.0000000000000000000 ) ) ;
#77 = EDGE_CURVE ( 'NONE', #70, #94, #43, .T. ) ;
#78 = PERSON_AND_ORGANIZATION ( #71, #32 ) ;
#79 = FACE_OUTER_BOUND ( 'NONE', #13, .T. ) ;
#80 = DATE_TIME_ROLE ( 'creation_date' ) ;
#81 = PRODUCT_DEFINITION_SHAPE ( 'NONE', 'NONE',  #88 ) ;
#82 = FACE_OUTER_BOUND ( 'NONE', #147, .T. ) ;
#83 = DIRECTION ( 'NONE',  ( 0.0000000000000000000, 0.0000000000000000000, 1.000000000000000000 ) ) ;
#84 = DIRECTION ( 'NONE',  ( 1.000000000000000000, 0.0000000000000000000, 0.0000000000000000000 ) ) ;
#85 = CARTESIAN_POINT ( 'NONE',  ( 0.0000000000000000000, 0.0000000000000000000, 3.180000000000000160 ) ) ;
#86 = APPROVAL_STATUS ( 'not_yet_approved' ) ;
#87 = VERTEX_POINT ( 'NONE', #125 ) ;
#88 = PRODUCT_DEFINITION ( 'UNKNOWN', '', #105, #115 ) ;
#89 = COORDINATED_UNIVERSAL_TIME_OFFSET ( 5, 0, .BEHIND. ) ;
#90 = CIRCLE ( 'NONE', #161, 25.39999999999999858 ) ;
#91 = COORDINATED_UNIVERSAL_TIME_OFFSET ( 5, 0, .BEHIND. ) ;
#92 = SECURITY_CLASSIFICATION ( '', '', #41 ) ;
#93 = APPROVAL_PERSON_ORGANIZATION ( #120, #11, #49 ) ;
#94 = VERTEX_POINT ( 'NONE', #7 ) ;
#95 = LOCAL_TIME ( 14, 31, 24.00000000000000000, #91 ) ;
#96 = DIRECTION ( 'NONE',  ( 1.000000000000000000, 0.0000000000000000000, 0.0000000000000000000 ) ) ;
#97 = CARTESIAN_POINT ( 'NONE',  ( 0.0000000000000000000, 0.0000000000000000000, 3.180000000000000160 ) ) ;
#98 = ADVANCED_FACE ( 'NONE', ( #82 ), #15, .T. ) ;
#99 = CARTESIAN_POINT ( 'NONE',  ( 0.0000000000000000000, 0.0000000000000000000, 3.180000000000000160 ) ) ;
#100 = AXIS2_PLACEMENT_3D ( 'NONE', #85, #59, #170 ) ;
#101 = ORIENTED_EDGE ( 'NONE', *, *, #111, .F. ) ;
#102 =( NAMED_UNIT ( * ) PLANE_ANGLE_UNIT ( ) SI_UNIT ( $, .RADIAN. ) );
#103 = APPLICATION_PROTOCOL_DEFINITION ( 'international standard', 'config_control_design', 1994, #75 ) ;
#104 = VERTEX_POINT ( 'NONE', #22 ) ;
#105 = PRODUCT_DEFINITION_FORMATION_WITH_SPECIFIED_SOURCE ( 'ANY', '', #57, .NOT_KNOWN. ) ;
#106 = PERSON_AND_ORGANIZATION ( #71, #32 ) ;
#107 = APPROVAL_DATE_TIME ( #63, #151 ) ;
#108 = CC_DESIGN_PERSON_AND_ORGANIZATION_ASSIGNMENT ( #78, #152, ( #105 ) ) ;
#109 = DIRECTION ( 'NONE',  ( -1.000000000000000000, 0.0000000000000000000, 0.0000000000000000000 ) ) ;
#110 = LOCAL_TIME ( 14, 31, 24.00000000000000000, #16 ) ;
#111 = EDGE_CURVE ( 'NONE', #70, #87, #90, .T. ) ;
#112 = CARTESIAN_POINT ( 'NONE',  ( 25.39999999999999858, 3.110602869834276076E-15, 3.180000000000000160 ) ) ;
#113 =( NAMED_UNIT ( * ) SI_UNIT ( $, .STERADIAN. ) SOLID_ANGLE_UNIT ( ) );
#114 = DIRECTION ( 'NONE',  ( 0.0000000000000000000, 0.0000000000000000000, 1.000000000000000000 ) ) ;
#115 = DESIGN_CONTEXT ( 'detailed design', #75, 'design' ) ;
#116 = LOCAL_TIME ( 14, 31, 24.00000000000000000, #156 ) ;
#117 = CYLINDRICAL_SURFACE ( 'NONE', #138, 25.39999999999999858 ) ;
#118 = VECTOR ( 'NONE', #146, 1000.000000000000000 ) ;
#119 = CC_DESIGN_APPROVAL ( #53, ( #88 ) ) ;
#120 = PERSON_AND_ORGANIZATION ( #71, #32 ) ;
#121 = LOCAL_TIME ( 14, 31, 24.00000000000000000, #89 ) ;
#122 = EDGE_CURVE ( 'NONE', #87, #104, #48, .T. ) ;
#123 = DIRECTION ( 'NONE',  ( -0.0000000000000000000, -0.0000000000000000000, -1.000000000000000000 ) ) ;
#124 = CLOSED_SHELL ( 'NONE', ( #56, #98, #167, #5 ) ) ;
#125 = CARTESIAN_POINT ( 'NONE',  ( -25.39999999999999858, 0.0000000000000000000, 3.180000000000000160 ) ) ;
#126 = DIRECTION ( 'NONE',  ( 1.000000000000000000, 0.0000000000000000000, -0.0000000000000000000 ) ) ;
#127 = PERSON_AND_ORGANIZATION ( #71, #32 ) ;
#128 = FACE_OUTER_BOUND ( 'NONE', #46, .T. ) ;
#129 = CARTESIAN_POINT ( 'NONE',  ( -25.39999999999999858, 0.0000000000000000000, 3.180000000000000160 ) ) ;
#130 = PERSON_AND_ORGANIZATION_ROLE ( 'design_owner' ) ;
#131 = APPROVAL_PERSON_ORGANIZATION ( #136, #151, #133 ) ;
#132 = CC_DESIGN_DATE_AND_TIME_ASSIGNMENT ( #166, #80, ( #88 ) ) ;
#133 = APPROVAL_ROLE ( '' ) ;
#134 = PERSON_AND_ORGANIZATION ( #71, #32 ) ;
#135 = ORIENTED_EDGE ( 'NONE', *, *, #144, .F. ) ;
#136 = PERSON_AND_ORGANIZATION ( #71, #32 ) ;
#137 = CALENDAR_DATE ( 2020, 21, 10 ) ;
#138 = AXIS2_PLACEMENT_3D ( 'NONE', #97, #123, #109 ) ;
#139 = ORIENTED_EDGE ( 'NONE', *, *, #44, .F. ) ;
#140 = APPROVAL_STATUS ( 'not_yet_approved' ) ;
#141 = CARTESIAN_POINT ( 'NONE',  ( 0.0000000000000000000, 0.0000000000000000000, 3.180000000000000160 ) ) ;
#142 = APPROVAL_DATE_TIME ( #39, #53 ) ;
#143 = ORIENTED_EDGE ( 'NONE', *, *, #111, .T. ) ;
#144 = EDGE_CURVE ( 'NONE', #104, #94, #162, .T. ) ;
#145 = CC_DESIGN_PERSON_AND_ORGANIZATION_ASSIGNMENT ( #1, #174, ( #92 ) ) ;
#146 = DIRECTION ( 'NONE',  ( -0.0000000000000000000, -0.0000000000000000000, -1.000000000000000000 ) ) ;
#147 = EDGE_LOOP ( 'NONE', ( #55, #139, #3, #52 ) ) ;
#148 = DIRECTION ( 'NONE',  ( 1.000000000000000000, 0.0000000000000000000, 0.0000000000000000000 ) ) ;
#149 = DIRECTION ( 'NONE',  ( 0.0000000000000000000, 0.0000000000000000000, 1.000000000000000000 ) ) ;
#150 = AXIS2_PLACEMENT_3D ( 'NONE', #157, #83, #96 ) ;
#151 = APPROVAL ( #140, 'UNSPECIFIED' ) ;
#152 = PERSON_AND_ORGANIZATION_ROLE ( 'design_supplier' ) ;
#153 = ADVANCED_BREP_SHAPE_REPRESENTATION ( 'Web Model 45817_15999', ( #18, #2 ), #45 ) ;
#154 = CIRCLE ( 'NONE', #172, 25.39999999999999858 ) ;
#155 = CARTESIAN_POINT ( 'NONE',  ( 0.0000000000000000000, 0.0000000000000000000, 0.0000000000000000000 ) ) ;
#156 = COORDINATED_UNIVERSAL_TIME_OFFSET ( 5, 0, .BEHIND. ) ;
#157 = CARTESIAN_POINT ( 'NONE',  ( 0.0000000000000000000, 0.0000000000000000000, 0.0000000000000000000 ) ) ;
#158 = CC_DESIGN_PERSON_AND_ORGANIZATION_ASSIGNMENT ( #14, #165, ( #88 ) ) ;
#159 = DIRECTION ( 'NONE',  ( 0.0000000000000000000, 0.0000000000000000000, 1.000000000000000000 ) ) ;
#160 = DIRECTION ( 'NONE',  ( -0.0000000000000000000, -0.0000000000000000000, -1.000000000000000000 ) ) ;
#161 = AXIS2_PLACEMENT_3D ( 'NONE', #36, #114, #84 ) ;
#162 = CIRCLE ( 'NONE', #21, 25.39999999999999858 ) ;
#163 = AXIS2_PLACEMENT_3D ( 'NONE', #155, #72, #126 ) ;
#164 = AXIS2_PLACEMENT_3D ( 'NONE', #99, #160, #37 ) ;
#165 = PERSON_AND_ORGANIZATION_ROLE ( 'creator' ) ;
#166 = DATE_AND_TIME ( #171, #116 ) ;
#167 = ADVANCED_FACE ( 'NONE', ( #79 ), #47, .T. ) ;
#168 = CC_DESIGN_PERSON_AND_ORGANIZATION_ASSIGNMENT ( #106, #175, ( #105 ) ) ;
#169 = FACE_OUTER_BOUND ( 'NONE', #31, .T. ) ;
#170 = DIRECTION ( 'NONE',  ( 1.000000000000000000, 0.0000000000000000000, -0.0000000000000000000 ) ) ;
#171 = CALENDAR_DATE ( 2020, 21, 10 ) ;
#172 = AXIS2_PLACEMENT_3D ( 'NONE', #141, #58, #33 ) ;
#173 = CALENDAR_DATE ( 2020, 21, 10 ) ;
#174 = PERSON_AND_ORGANIZATION_ROLE ( 'classification_officer' ) ;
#175 = PERSON_AND_ORGANIZATION_ROLE ( 'creator' ) ;
ENDSEC;
END-ISO-10303-21;
