ISO-10303-21;
HEADER;
FILE_DESCRIPTION (( 'STEP AP203' ),
    '1' );
FILE_NAME ('Web Model 19822_19829.step',
    '2022-01-03T21:59:29',
    ( '' ),
    ( '' ),
    'SwSTEP 2.0',
    'SolidWorks 2018',
    '' );
FILE_SCHEMA (( 'CONFIG_CONTROL_DESIGN' ));
ENDSEC;

DATA;
#1 = COORDINATED_UNIVERSAL_TIME_OFFSET ( 5, 0, .BEHIND. ) ;
#2 = VERTEX_POINT ( 'NONE', #61 ) ;
#3 = APPROVAL_STATUS ( 'not_yet_approved' ) ;
#4 = LOCAL_TIME ( 16, 59, 29.00000000000000000, #152 ) ;
#5 = CIRCLE ( 'NONE', #89, 25.39999999999999858 ) ;
#6 = DIRECTION ( 'NONE',  ( -1.000000000000000000, 0.000000000000000000, 0.000000000000000000 ) ) ;
#7 = CC_DESIGN_PERSON_AND_ORGANIZATION_ASSIGNMENT ( #33, #154, ( #41 ) ) ;
#8 = APPLICATION_CONTEXT ( 'configuration controlled 3d designs of mechanical parts and assemblies' ) ;
#9 = FACE_OUTER_BOUND ( 'NONE', #109, .T. ) ;
#10 = DIRECTION ( 'NONE',  ( 1.000000000000000000, 0.000000000000000000, 0.000000000000000000 ) ) ;
#11 = CARTESIAN_POINT ( 'NONE',  ( -25.39999999999999858, 0.000000000000000000, 1.500000000000000000 ) ) ;
#12 = APPROVAL_DATE_TIME ( #113, #95 ) ;
#13 = APPROVAL_STATUS ( 'not_yet_approved' ) ;
#14 = PRODUCT_DEFINITION ( 'UNKNOWN', '', #35, #53 ) ;
#15 = CALENDAR_DATE ( 2022, 3, 1 ) ;
#16 = PLANE ( 'NONE',  #70 ) ;
#17 = ADVANCED_FACE ( 'NONE', ( #114 ), #99, .T. ) ;
#18 = LOCAL_TIME ( 16, 59, 29.00000000000000000, #57 ) ;
#19 =( LENGTH_UNIT ( ) NAMED_UNIT ( * ) SI_UNIT ( .MILLI., .METRE. ) );
#20 = DIRECTION ( 'NONE',  ( 1.000000000000000000, 0.000000000000000000, -0.000000000000000000 ) ) ;
#21 = EDGE_CURVE ( 'NONE', #164, #87, #68, .T. ) ;
#22 = LOCAL_TIME ( 16, 59, 29.00000000000000000, #124 ) ;
#23 = AXIS2_PLACEMENT_3D ( 'NONE', #121, #172, #10 ) ;
#24 = ORIENTED_EDGE ( 'NONE', *, *, #148, .T. ) ;
#25 = CALENDAR_DATE ( 2022, 3, 1 ) ;
#26 = PERSON_AND_ORGANIZATION ( #86, #105 ) ;
#27 = DATE_TIME_ROLE ( 'creation_date' ) ;
#28 = APPLICATION_CONTEXT ( 'configuration controlled 3d designs of mechanical parts and assemblies' ) ;
#29 = AXIS2_PLACEMENT_3D ( 'NONE', #31, #118, #50 ) ;
#30 = APPROVAL_PERSON_ORGANIZATION ( #54, #95, #112 ) ;
#31 = CARTESIAN_POINT ( 'NONE',  ( 0.000000000000000000, 0.000000000000000000, 0.000000000000000000 ) ) ;
#32 = ADVANCED_FACE ( 'NONE', ( #43 ), #151, .T. ) ;
#33 = PERSON_AND_ORGANIZATION ( #86, #105 ) ;
#34 = CARTESIAN_POINT ( 'NONE',  ( 0.000000000000000000, 0.000000000000000000, 0.000000000000000000 ) ) ;
#35 = PRODUCT_DEFINITION_FORMATION_WITH_SPECIFIED_SOURCE ( 'ANY', '', #41, .NOT_KNOWN. ) ;
#36 = DIRECTION ( 'NONE',  ( 0.000000000000000000, 0.000000000000000000, 1.000000000000000000 ) ) ;
#37 = LOCAL_TIME ( 16, 59, 29.00000000000000000, #84 ) ;
#38 = ORIENTED_EDGE ( 'NONE', *, *, #21, .F. ) ;
#39 = VECTOR ( 'NONE', #134, 1000.000000000000000 ) ;
#40 = DATE_AND_TIME ( #15, #22 ) ;
#41 = PRODUCT ( 'Web Model 19822_19829', 'Web Model 19822_19829', '', ( #58 ) ) ;
#42 = PERSON_AND_ORGANIZATION_ROLE ( 'creator' ) ;
#43 = FACE_OUTER_BOUND ( 'NONE', #173, .T. ) ;
#44 = EDGE_CURVE ( 'NONE', #2, #52, #123, .T. ) ;
#45 = CC_DESIGN_PERSON_AND_ORGANIZATION_ASSIGNMENT ( #26, #127, ( #14 ) ) ;
#46 = UNCERTAINTY_MEASURE_WITH_UNIT (LENGTH_MEASURE( 1.000000000000000082E-05 ), #19, 'distance_accuracy_value', 'NONE');
#47 = CARTESIAN_POINT ( 'NONE',  ( 0.000000000000000000, 0.000000000000000000, 1.500000000000000000 ) ) ;
#48 = CARTESIAN_POINT ( 'NONE',  ( 0.000000000000000000, 0.000000000000000000, 0.000000000000000000 ) ) ;
#49 = DIRECTION ( 'NONE',  ( 1.000000000000000000, 0.000000000000000000, 0.000000000000000000 ) ) ;
#50 = DIRECTION ( 'NONE',  ( 1.000000000000000000, 0.000000000000000000, 0.000000000000000000 ) ) ;
#51 = CARTESIAN_POINT ( 'NONE',  ( 25.39999999999999858, 3.110602869834276865E-15, 1.500000000000000000 ) ) ;
#52 = VERTEX_POINT ( 'NONE', #101 ) ;
#53 = DESIGN_CONTEXT ( 'detailed design', #28, 'design' ) ;
#54 = PERSON_AND_ORGANIZATION ( #86, #105 ) ;
#55 = AXIS2_PLACEMENT_3D ( 'NONE', #60, #132, #144 ) ;
#56 = CC_DESIGN_DATE_AND_TIME_ASSIGNMENT ( #40, #138, ( #110 ) ) ;
#57 = COORDINATED_UNIVERSAL_TIME_OFFSET ( 5, 0, .BEHIND. ) ;
#58 = MECHANICAL_CONTEXT ( 'NONE', #8, 'mechanical' ) ;
#59 =( GEOMETRIC_REPRESENTATION_CONTEXT ( 3 ) GLOBAL_UNCERTAINTY_ASSIGNED_CONTEXT ( ( #46 ) ) GLOBAL_UNIT_ASSIGNED_CONTEXT ( ( #19, #64, #171 ) ) REPRESENTATION_CONTEXT ( 'NONE', 'WORKASPACE' ) );
#60 = CARTESIAN_POINT ( 'NONE',  ( 0.000000000000000000, 0.000000000000000000, 1.500000000000000000 ) ) ;
#61 = CARTESIAN_POINT ( 'NONE',  ( 25.39999999999999858, 3.110602869834276865E-15, 0.000000000000000000 ) ) ;
#62 = DIRECTION ( 'NONE',  ( -0.000000000000000000, -0.000000000000000000, -1.000000000000000000 ) ) ;
#63 = CALENDAR_DATE ( 2022, 3, 1 ) ;
#64 =( NAMED_UNIT ( * ) PLANE_ANGLE_UNIT ( ) SI_UNIT ( $, .RADIAN. ) );
#65 = ORIENTED_EDGE ( 'NONE', *, *, #107, .T. ) ;
#66 = APPROVAL ( #3, 'UNSPECIFIED' ) ;
#67 = CALENDAR_DATE ( 2022, 3, 1 ) ;
#68 = CIRCLE ( 'NONE', #55, 25.39999999999999858 ) ;
#69 = PERSON_AND_ORGANIZATION ( #86, #105 ) ;
#70 = AXIS2_PLACEMENT_3D ( 'NONE', #48, #147, #20 ) ;
#71 = PERSON_AND_ORGANIZATION_ROLE ( 'design_supplier' ) ;
#72 = ORIENTED_EDGE ( 'NONE', *, *, #137, .T. ) ;
#73 = AXIS2_PLACEMENT_3D ( 'NONE', #91, #62, #6 ) ;
#74 = APPROVAL ( #13, 'UNSPECIFIED' ) ;
#75 = ADVANCED_FACE ( 'NONE', ( #85 ), #16, .F. ) ;
#76 = APPLICATION_PROTOCOL_DEFINITION ( 'international standard', 'config_control_design', 1994, #8 ) ;
#77 = DIRECTION ( 'NONE',  ( 0.000000000000000000, 0.000000000000000000, 1.000000000000000000 ) ) ;
#78 = PRODUCT_RELATED_PRODUCT_CATEGORY ( 'detail', '', ( #41 ) ) ;
#79 = DIRECTION ( 'NONE',  ( 1.000000000000000000, 0.000000000000000000, 0.000000000000000000 ) ) ;
#80 = EDGE_LOOP ( 'NONE', ( #116, #130 ) ) ;
#81 = AXIS2_PLACEMENT_3D ( 'NONE', #34, #36, #49 ) ;
#82 = CIRCLE ( 'NONE', #81, 25.39999999999999858 ) ;
#83 = AXIS2_PLACEMENT_3D ( 'NONE', #47, #170, #90 ) ;
#84 = COORDINATED_UNIVERSAL_TIME_OFFSET ( 5, 0, .BEHIND. ) ;
#85 = FACE_OUTER_BOUND ( 'NONE', #80, .T. ) ;
#86 = PERSON ( 'UNSPECIFIED', 'UNSPECIFIED', 'UNSPECIFIED', ('UNSPECIFIED'), ('UNSPECIFIED'), ('UNSPECIFIED') ) ;
#87 = VERTEX_POINT ( 'NONE', #11 ) ;
#88 = ORIENTED_EDGE ( 'NONE', *, *, #119, .T. ) ;
#89 = AXIS2_PLACEMENT_3D ( 'NONE', #102, #117, #79 ) ;
#90 = DIRECTION ( 'NONE',  ( -1.000000000000000000, 0.000000000000000000, 0.000000000000000000 ) ) ;
#91 = CARTESIAN_POINT ( 'NONE',  ( 0.000000000000000000, 0.000000000000000000, 1.500000000000000000 ) ) ;
#92 = CARTESIAN_POINT ( 'NONE',  ( -25.39999999999999858, 0.000000000000000000, 1.500000000000000000 ) ) ;
#93 = DIRECTION ( 'NONE',  ( -0.000000000000000000, -0.000000000000000000, -1.000000000000000000 ) ) ;
#94 = DIRECTION ( 'NONE',  ( 1.000000000000000000, 0.000000000000000000, -0.000000000000000000 ) ) ;
#95 = APPROVAL ( #157, 'UNSPECIFIED' ) ;
#96 = APPROVAL_PERSON_ORGANIZATION ( #167, #74, #141 ) ;
#97 = VECTOR ( 'NONE', #93, 1000.000000000000000 ) ;
#98 = PERSON_AND_ORGANIZATION_ROLE ( 'classification_officer' ) ;
#99 = CYLINDRICAL_SURFACE ( 'NONE', #73, 25.39999999999999858 ) ;
#100 = CC_DESIGN_DATE_AND_TIME_ASSIGNMENT ( #143, #27, ( #14 ) ) ;
#101 = CARTESIAN_POINT ( 'NONE',  ( -25.39999999999999858, 0.000000000000000000, 0.000000000000000000 ) ) ;
#102 = CARTESIAN_POINT ( 'NONE',  ( 0.000000000000000000, 0.000000000000000000, 1.500000000000000000 ) ) ;
#103 = PRODUCT_DEFINITION_SHAPE ( 'NONE', 'NONE',  #14 ) ;
#104 = CARTESIAN_POINT ( 'NONE',  ( 25.39999999999999858, 3.110602869834276865E-15, 1.500000000000000000 ) ) ;
#105 = ORGANIZATION ( 'UNSPECIFIED', 'UNSPECIFIED', '' ) ;
#106 = LINE ( 'NONE', #92, #97 ) ;
#107 = EDGE_CURVE ( 'NONE', #52, #2, #82, .T. ) ;
#108 = DATE_AND_TIME ( #166, #18 ) ;
#109 = EDGE_LOOP ( 'NONE', ( #88, #159 ) ) ;
#110 = SECURITY_CLASSIFICATION ( '', '', #128 ) ;
#111 = ADVANCED_BREP_SHAPE_REPRESENTATION ( 'Web Model 19822_19829', ( #149, #23 ), #59 ) ;
#112 = APPROVAL_ROLE ( '' ) ;
#113 = DATE_AND_TIME ( #67, #4 ) ;
#114 = FACE_OUTER_BOUND ( 'NONE', #145, .T. ) ;
#115 = ADVANCED_FACE ( 'NONE', ( #9 ), #161, .T. ) ;
#116 = ORIENTED_EDGE ( 'NONE', *, *, #107, .F. ) ;
#117 = DIRECTION ( 'NONE',  ( 0.000000000000000000, 0.000000000000000000, 1.000000000000000000 ) ) ;
#118 = DIRECTION ( 'NONE',  ( 0.000000000000000000, 0.000000000000000000, 1.000000000000000000 ) ) ;
#119 = EDGE_CURVE ( 'NONE', #87, #164, #5, .T. ) ;
#120 = APPROVAL_DATE_TIME ( #156, #66 ) ;
#121 = CARTESIAN_POINT ( 'NONE',  ( 0.000000000000000000, 0.000000000000000000, 0.000000000000000000 ) ) ;
#122 = CC_DESIGN_APPROVAL ( #95, ( #14 ) ) ;
#123 = CIRCLE ( 'NONE', #29, 25.39999999999999858 ) ;
#124 = COORDINATED_UNIVERSAL_TIME_OFFSET ( 5, 0, .BEHIND. ) ;
#125 = CC_DESIGN_PERSON_AND_ORGANIZATION_ASSIGNMENT ( #160, #98, ( #110 ) ) ;
#126 = CLOSED_SHELL ( 'NONE', ( #17, #32, #115, #75 ) ) ;
#127 = PERSON_AND_ORGANIZATION_ROLE ( 'creator' ) ;
#128 = SECURITY_CLASSIFICATION_LEVEL ( 'unclassified' ) ;
#129 = APPROVAL_ROLE ( '' ) ;
#130 = ORIENTED_EDGE ( 'NONE', *, *, #44, .F. ) ;
#131 = CC_DESIGN_APPROVAL ( #66, ( #35 ) ) ;
#132 = DIRECTION ( 'NONE',  ( 0.000000000000000000, 0.000000000000000000, 1.000000000000000000 ) ) ;
#133 = SHAPE_DEFINITION_REPRESENTATION ( #103, #111 ) ;
#134 = DIRECTION ( 'NONE',  ( -0.000000000000000000, -0.000000000000000000, -1.000000000000000000 ) ) ;
#135 = APPROVAL_PERSON_ORGANIZATION ( #139, #66, #129 ) ;
#136 = ORIENTED_EDGE ( 'NONE', *, *, #148, .F. ) ;
#137 = EDGE_CURVE ( 'NONE', #87, #52, #106, .T. ) ;
#138 = DATE_TIME_ROLE ( 'classification_date' ) ;
#139 = PERSON_AND_ORGANIZATION ( #86, #105 ) ;
#140 = APPLICATION_PROTOCOL_DEFINITION ( 'international standard', 'config_control_design', 1994, #28 ) ;
#141 = APPROVAL_ROLE ( '' ) ;
#142 = LINE ( 'NONE', #51, #39 ) ;
#143 = DATE_AND_TIME ( #25, #150 ) ;
#144 = DIRECTION ( 'NONE',  ( 1.000000000000000000, 0.000000000000000000, 0.000000000000000000 ) ) ;
#145 = EDGE_LOOP ( 'NONE', ( #38, #24, #162, #153 ) ) ;
#146 = CARTESIAN_POINT ( 'NONE',  ( 0.000000000000000000, 0.000000000000000000, 1.500000000000000000 ) ) ;
#147 = DIRECTION ( 'NONE',  ( 0.000000000000000000, 0.000000000000000000, 1.000000000000000000 ) ) ;
#148 = EDGE_CURVE ( 'NONE', #164, #2, #142, .T. ) ;
#149 = MANIFOLD_SOLID_BREP ( 'Boss-Extrude1', #126 ) ;
#150 = LOCAL_TIME ( 16, 59, 29.00000000000000000, #1 ) ;
#151 = CYLINDRICAL_SURFACE ( 'NONE', #83, 25.39999999999999858 ) ;
#152 = COORDINATED_UNIVERSAL_TIME_OFFSET ( 5, 0, .BEHIND. ) ;
#153 = ORIENTED_EDGE ( 'NONE', *, *, #137, .F. ) ;
#154 = PERSON_AND_ORGANIZATION_ROLE ( 'design_owner' ) ;
#155 = ORIENTED_EDGE ( 'NONE', *, *, #119, .F. ) ;
#156 = DATE_AND_TIME ( #63, #37 ) ;
#157 = APPROVAL_STATUS ( 'not_yet_approved' ) ;
#158 = AXIS2_PLACEMENT_3D ( 'NONE', #146, #77, #94 ) ;
#159 = ORIENTED_EDGE ( 'NONE', *, *, #21, .T. ) ;
#160 = PERSON_AND_ORGANIZATION ( #86, #105 ) ;
#161 = PLANE ( 'NONE',  #158 ) ;
#162 = ORIENTED_EDGE ( 'NONE', *, *, #44, .T. ) ;
#163 = CC_DESIGN_APPROVAL ( #74, ( #110 ) ) ;
#164 = VERTEX_POINT ( 'NONE', #104 ) ;
#165 = CC_DESIGN_PERSON_AND_ORGANIZATION_ASSIGNMENT ( #169, #42, ( #35 ) ) ;
#166 = CALENDAR_DATE ( 2022, 3, 1 ) ;
#167 = PERSON_AND_ORGANIZATION ( #86, #105 ) ;
#168 = CC_DESIGN_SECURITY_CLASSIFICATION ( #110, ( #35 ) ) ;
#169 = PERSON_AND_ORGANIZATION ( #86, #105 ) ;
#170 = DIRECTION ( 'NONE',  ( -0.000000000000000000, -0.000000000000000000, -1.000000000000000000 ) ) ;
#171 =( NAMED_UNIT ( * ) SI_UNIT ( $, .STERADIAN. ) SOLID_ANGLE_UNIT ( ) );
#172 = DIRECTION ( 'NONE',  ( 0.000000000000000000, 0.000000000000000000, 1.000000000000000000 ) ) ;
#173 = EDGE_LOOP ( 'NONE', ( #136, #155, #72, #65 ) ) ;
#174 = CC_DESIGN_PERSON_AND_ORGANIZATION_ASSIGNMENT ( #69, #71, ( #35 ) ) ;
#175 = APPROVAL_DATE_TIME ( #108, #74 ) ;
ENDSEC;
END-ISO-10303-21;
