ISO-10303-21;
HEADER;
FILE_DESCRIPTION (( 'STEP AP203' ),
    '1' );
FILE_NAME ('Web Model 17263_17263.step',
    '2021-05-18T18:58:13',
    ( '' ),
    ( '' ),
    'SwSTEP 2.0',
    'SolidWorks 2018',
    '' );
FILE_SCHEMA (( 'CONFIG_CONTROL_DESIGN' ));
ENDSEC;

DATA;
#1 = PERSON ( 'UNSPECIFIED', 'UNSPECIFIED', 'UNSPECIFIED', ('UNSPECIFIED'), ('UNSPECIFIED'), ('UNSPECIFIED') ) ;
#2 = APPROVAL_DATE_TIME ( #227, #51 ) ;
#3 = CC_DESIGN_APPROVAL ( #51, ( #174 ) ) ;
#4 = CALENDAR_DATE ( 2021, 18, 5 ) ;
#5 = DIRECTION ( 'NONE',  ( -1.387778780781445676E-16, 1.000000000000000000, -0.000000000000000000 ) ) ;
#6 = VECTOR ( 'NONE', #52, 39.37007874015748143 ) ;
#7 = ORIENTED_EDGE ( 'NONE', *, *, #46, .T. ) ;
#8 = EDGE_CURVE ( 'NONE', #101, #11, #28, .T. ) ;
#9 = CARTESIAN_POINT ( 'NONE',  ( 1.968503937007874738, -1.968503937007874516, 0.04330708661417323468 ) ) ;
#10 = DIRECTION ( 'NONE',  ( -0.000000000000000000, -0.000000000000000000, -1.000000000000000000 ) ) ;
#11 = VERTEX_POINT ( 'NONE', #177 ) ;
#12 = EDGE_CURVE ( 'NONE', #142, #60, #118, .T. ) ;
#13 = CARTESIAN_POINT ( 'NONE',  ( 1.968503937007874738, -1.968503937007874516, 0.04330708661417323468 ) ) ;
#14 = DIRECTION ( 'NONE',  ( 1.387778780781445676E-16, -1.000000000000000000, 0.000000000000000000 ) ) ;
#15 = ADVANCED_FACE ( 'NONE', ( #59 ), #129, .F. ) ;
#16 = ORIENTED_EDGE ( 'NONE', *, *, #100, .T. ) ;
#17 = APPROVAL_ROLE ( '' ) ;
#18 = DIRECTION ( 'NONE',  ( 0.000000000000000000, 0.000000000000000000, 1.000000000000000000 ) ) ;
#19 = VECTOR ( 'NONE', #184, 39.37007874015748143 ) ;
#20 = EDGE_CURVE ( 'NONE', #11, #142, #54, .T. ) ;
#21 = EDGE_CURVE ( 'NONE', #193, #89, #145, .T. ) ;
#22 = ORIENTED_EDGE ( 'NONE', *, *, #239, .F. ) ;
#23 = LOCAL_TIME ( 14, 58, 13.00000000000000000, #141 ) ;
#24 = CARTESIAN_POINT ( 'NONE',  ( -1.968503937007874072, 1.968503937007873850, 0.04330708661417323468 ) ) ;
#25 = CC_DESIGN_PERSON_AND_ORGANIZATION_ASSIGNMENT ( #74, #170, ( #27 ) ) ;
#26 = PERSON_AND_ORGANIZATION ( #1, #216 ) ;
#27 = PRODUCT ( 'Web Model 17263_17263', 'Web Model 17263_17263', '', ( #36 ) ) ;
#28 = LINE ( 'NONE', #65, #169 ) ;
#29 = LOCAL_TIME ( 14, 58, 13.00000000000000000, #56 ) ;
#30 = ORIENTED_EDGE ( 'NONE', *, *, #172, .T. ) ;
#31 = DIRECTION ( 'NONE',  ( 1.000000000000000000, 0.000000000000000000, 0.000000000000000000 ) ) ;
#32 =( NAMED_UNIT ( * ) PLANE_ANGLE_UNIT ( ) SI_UNIT ( $, .RADIAN. ) );
#33 = CLOSED_SHELL ( 'NONE', ( #212, #48, #15, #232, #95, #132 ) ) ;
#34 = PERSON_AND_ORGANIZATION_ROLE ( 'classification_officer' ) ;
#35 = EDGE_LOOP ( 'NONE', ( #187, #50, #157, #16 ) ) ;
#36 = MECHANICAL_CONTEXT ( 'NONE', #78, 'mechanical' ) ;
#37 = PERSON_AND_ORGANIZATION_ROLE ( 'design_supplier' ) ;
#38 = CC_DESIGN_PERSON_AND_ORGANIZATION_ASSIGNMENT ( #41, #34, ( #79 ) ) ;
#39 = ORIENTED_EDGE ( 'NONE', *, *, #150, .T. ) ;
#40 = CARTESIAN_POINT ( 'NONE',  ( 1.968503937007874072, 1.968503937007873850, 0.04330708661417323468 ) ) ;
#41 = PERSON_AND_ORGANIZATION ( #1, #216 ) ;
#42 = ORIENTED_EDGE ( 'NONE', *, *, #21, .F. ) ;
#43 = AXIS2_PLACEMENT_3D ( 'NONE', #62, #128, #173 ) ;
#44 = ORIENTED_EDGE ( 'NONE', *, *, #103, .F. ) ;
#45 = CALENDAR_DATE ( 2021, 18, 5 ) ;
#46 = EDGE_CURVE ( 'NONE', #226, #60, #63, .T. ) ;
#47 = PLANE ( 'NONE',  #163 ) ;
#48 = ADVANCED_FACE ( 'NONE', ( #222 ), #88, .F. ) ;
#49 = VECTOR ( 'NONE', #137, 39.37007874015748143 ) ;
#50 = ORIENTED_EDGE ( 'NONE', *, *, #144, .F. ) ;
#51 = APPROVAL ( #99, 'UNSPECIFIED' ) ;
#52 = DIRECTION ( 'NONE',  ( -1.000000000000000000, -0.000000000000000000, -0.000000000000000000 ) ) ;
#53 = APPROVAL_STATUS ( 'not_yet_approved' ) ;
#54 = LINE ( 'NONE', #61, #204 ) ;
#55 = EDGE_LOOP ( 'NONE', ( #238, #22, #153, #7 ) ) ;
#56 = COORDINATED_UNIVERSAL_TIME_OFFSET ( 5, 0, .BEHIND. ) ;
#57 = PERSON_AND_ORGANIZATION_ROLE ( 'creator' ) ;
#58 = APPROVAL_ROLE ( '' ) ;
#59 = FACE_OUTER_BOUND ( 'NONE', #55, .T. ) ;
#60 = VERTEX_POINT ( 'NONE', #189 ) ;
#61 = CARTESIAN_POINT ( 'NONE',  ( 1.968503937007874072, 1.968503937007873850, 0.000000000000000000 ) ) ;
#62 = CARTESIAN_POINT ( 'NONE',  ( -1.968503937007874072, 1.968503937007873850, 0.04330708661417323468 ) ) ;
#63 = LINE ( 'NONE', #24, #130 ) ;
#64 = VECTOR ( 'NONE', #136, 39.37007874015748143 ) ;
#65 = CARTESIAN_POINT ( 'NONE',  ( -1.968503937007873628, -1.968503937007874516, 0.000000000000000000 ) ) ;
#66 = LOCAL_TIME ( 14, 58, 13.00000000000000000, #219 ) ;
#67 = DIRECTION ( 'NONE',  ( 0.000000000000000000, -0.000000000000000000, -1.000000000000000000 ) ) ;
#68 = CARTESIAN_POINT ( 'NONE',  ( -1.968503937007874072, 1.968503937007873850, 0.04330708661417323468 ) ) ;
#69 = DIRECTION ( 'NONE',  ( -1.000000000000000000, -1.387778780781445676E-16, 0.000000000000000000 ) ) ;
#70 = CARTESIAN_POINT ( 'NONE',  ( -1.968503937007874072, 1.968503937007873850, 0.000000000000000000 ) ) ;
#71 = VECTOR ( 'NONE', #186, 39.37007874015748143 ) ;
#72 = CC_DESIGN_DATE_AND_TIME_ASSIGNMENT ( #166, #236, ( #174 ) ) ;
#73 = ORIENTED_EDGE ( 'NONE', *, *, #144, .T. ) ;
#74 = PERSON_AND_ORGANIZATION ( #1, #216 ) ;
#75 = CC_DESIGN_APPROVAL ( #228, ( #123 ) ) ;
#76 = APPLICATION_PROTOCOL_DEFINITION ( 'international standard', 'config_control_design', 1994, #78 ) ;
#77 = FACE_OUTER_BOUND ( 'NONE', #91, .T. ) ;
#78 = APPLICATION_CONTEXT ( 'configuration controlled 3d designs of mechanical parts and assemblies' ) ;
#79 = SECURITY_CLASSIFICATION ( '', '', #188 ) ;
#80 = FACE_OUTER_BOUND ( 'NONE', #146, .T. ) ;
#81 = VERTEX_POINT ( 'NONE', #40 ) ;
#82 = APPROVAL_PERSON_ORGANIZATION ( #179, #228, #58 ) ;
#83 = CARTESIAN_POINT ( 'NONE',  ( -1.968503937007874072, 1.968503937007873850, 0.000000000000000000 ) ) ;
#84 = PERSON_AND_ORGANIZATION ( #1, #216 ) ;
#85 = ADVANCED_BREP_SHAPE_REPRESENTATION ( 'Web Model 17263_17263', ( #237, #206 ), #190 ) ;
#86 = DESIGN_CONTEXT ( 'detailed design', #221, 'design' ) ;
#87 = LINE ( 'NONE', #9, #185 ) ;
#88 = PLANE ( 'NONE',  #120 ) ;
#89 = VERTEX_POINT ( 'NONE', #13 ) ;
#90 = CARTESIAN_POINT ( 'NONE',  ( 0.000000000000000000, 0.000000000000000000, 0.04330708661417323468 ) ) ;
#91 = EDGE_LOOP ( 'NONE', ( #39, #198, #30, #182 ) ) ;
#92 = DIRECTION ( 'NONE',  ( 0.000000000000000000, -0.000000000000000000, 1.000000000000000000 ) ) ;
#93 = APPROVAL_PERSON_ORGANIZATION ( #192, #126, #17 ) ;
#94 = PLANE ( 'NONE',  #180 ) ;
#95 = ADVANCED_FACE ( 'NONE', ( #77 ), #133, .T. ) ;
#96 = DATE_AND_TIME ( #109, #66 ) ;
#97 = CC_DESIGN_PERSON_AND_ORGANIZATION_ASSIGNMENT ( #215, #57, ( #174 ) ) ;
#98 =( LENGTH_UNIT ( ) NAMED_UNIT ( * ) SI_UNIT ( $, .METRE. ) );
#99 = APPROVAL_STATUS ( 'not_yet_approved' ) ;
#100 = EDGE_CURVE ( 'NONE', #89, #11, #87, .T. ) ;
#101 = VERTEX_POINT ( 'NONE', #131 ) ;
#102 = APPLICATION_PROTOCOL_DEFINITION ( 'international standard', 'config_control_design', 1994, #221 ) ;
#103 = EDGE_CURVE ( 'NONE', #81, #226, #160, .T. ) ;
#104 = DIRECTION ( 'NONE',  ( -1.000000000000000000, -0.000000000000000000, -0.000000000000000000 ) ) ;
#105 = ORIENTED_EDGE ( 'NONE', *, *, #20, .F. ) ;
#106 = LENGTH_MEASURE_WITH_UNIT ( LENGTH_MEASURE( 0.02539999999999999897 ), #98 );
#107 = SHAPE_DEFINITION_REPRESENTATION ( #148, #85 ) ;
#108 = EDGE_CURVE ( 'NONE', #60, #101, #134, .T. ) ;
#109 = CALENDAR_DATE ( 2021, 18, 5 ) ;
#110 = CARTESIAN_POINT ( 'NONE',  ( 1.968503937007874072, 1.968503937007873850, 0.000000000000000000 ) ) ;
#111 = CALENDAR_DATE ( 2021, 18, 5 ) ;
#112 = DIRECTION ( 'NONE',  ( 1.000000000000000000, 0.000000000000000000, 0.000000000000000000 ) ) ;
#113 = CC_DESIGN_DATE_AND_TIME_ASSIGNMENT ( #124, #220, ( #79 ) ) ;
#114 = AXIS2_PLACEMENT_3D ( 'NONE', #90, #213, #112 ) ;
#115 = CALENDAR_DATE ( 2021, 18, 5 ) ;
#116 = CARTESIAN_POINT ( 'NONE',  ( 1.968503937007874072, 1.968503937007873850, 0.04330708661417323468 ) ) ;
#117 = CARTESIAN_POINT ( 'NONE',  ( 1.968503937007874072, 1.968503937007873850, 0.04330708661417323468 ) ) ;
#118 = LINE ( 'NONE', #83, #125 ) ;
#119 = CC_DESIGN_PERSON_AND_ORGANIZATION_ASSIGNMENT ( #84, #37, ( #123 ) ) ;
#120 = AXIS2_PLACEMENT_3D ( 'NONE', #68, #231, #67 ) ;
#121 = DIRECTION ( 'NONE',  ( 1.387778780781445676E-16, -1.000000000000000000, 0.000000000000000000 ) ) ;
#122 = ORIENTED_EDGE ( 'NONE', *, *, #239, .T. ) ;
#123 = PRODUCT_DEFINITION_FORMATION_WITH_SPECIFIED_SOURCE ( 'ANY', '', #27, .NOT_KNOWN. ) ;
#124 = DATE_AND_TIME ( #111, #223 ) ;
#125 = VECTOR ( 'NONE', #104, 39.37007874015748143 ) ;
#126 = APPROVAL ( #171, 'UNSPECIFIED' ) ;
#127 = EDGE_LOOP ( 'NONE', ( #229, #191, #44, #73 ) ) ;
#128 = DIRECTION ( 'NONE',  ( 1.000000000000000000, 1.387778780781445676E-16, -0.000000000000000000 ) ) ;
#129 = PLANE ( 'NONE',  #43 ) ;
#130 = VECTOR ( 'NONE', #175, 39.37007874015748143 ) ;
#131 = CARTESIAN_POINT ( 'NONE',  ( -1.968503937007873628, -1.968503937007874516, 0.000000000000000000 ) ) ;
#132 = ADVANCED_FACE ( 'NONE', ( #197 ), #218, .F. ) ;
#133 = PLANE ( 'NONE',  #114 ) ;
#134 = LINE ( 'NONE', #70, #138 ) ;
#135 = CARTESIAN_POINT ( 'NONE',  ( -1.968503937007873628, -1.968503937007874516, 0.04330708661417323468 ) ) ;
#136 = DIRECTION ( 'NONE',  ( -0.000000000000000000, -0.000000000000000000, -1.000000000000000000 ) ) ;
#137 = DIRECTION ( 'NONE',  ( 1.387778780781445676E-16, -1.000000000000000000, 0.000000000000000000 ) ) ;
#138 = VECTOR ( 'NONE', #14, 39.37007874015748143 ) ;
#139 = PRODUCT_RELATED_PRODUCT_CATEGORY ( 'detail', '', ( #27 ) ) ;
#140 = CARTESIAN_POINT ( 'NONE',  ( -1.968503937007874072, 1.968503937007873850, 0.04330708661417323468 ) ) ;
#141 = COORDINATED_UNIVERSAL_TIME_OFFSET ( 5, 0, .BEHIND. ) ;
#142 = VERTEX_POINT ( 'NONE', #110 ) ;
#143 = APPROVAL_DATE_TIME ( #96, #228 ) ;
#144 = EDGE_CURVE ( 'NONE', #81, #142, #176, .T. ) ;
#145 = LINE ( 'NONE', #159, #207 ) ;
#146 = EDGE_LOOP ( 'NONE', ( #224, #178, #42, #122 ) ) ;
#147 = CARTESIAN_POINT ( 'NONE',  ( 0.000000000000000000, 0.000000000000000000, 0.000000000000000000 ) ) ;
#148 = PRODUCT_DEFINITION_SHAPE ( 'NONE', 'NONE',  #174 ) ;
#149 = ORIENTED_EDGE ( 'NONE', *, *, #12, .F. ) ;
#150 = EDGE_CURVE ( 'NONE', #89, #81, #155, .T. ) ;
#151 = CARTESIAN_POINT ( 'NONE',  ( 1.968503937007874072, 1.968503937007873850, 0.04330708661417323468 ) ) ;
#152 = PERSON_AND_ORGANIZATION_ROLE ( 'creator' ) ;
#153 = ORIENTED_EDGE ( 'NONE', *, *, #172, .F. ) ;
#154 = APPROVAL_DATE_TIME ( #195, #126 ) ;
#155 = LINE ( 'NONE', #151, #71 ) ;
#156 = EDGE_LOOP ( 'NONE', ( #105, #202, #208, #149 ) ) ;
#157 = ORIENTED_EDGE ( 'NONE', *, *, #150, .F. ) ;
#158 = DIRECTION ( 'NONE',  ( 1.000000000000000000, 0.000000000000000000, 0.000000000000000000 ) ) ;
#159 = CARTESIAN_POINT ( 'NONE',  ( -1.968503937007873628, -1.968503937007874516, 0.04330708661417323468 ) ) ;
#160 = LINE ( 'NONE', #162, #6 ) ;
#161 = COORDINATED_UNIVERSAL_TIME_OFFSET ( 5, 0, .BEHIND. ) ;
#162 = CARTESIAN_POINT ( 'NONE',  ( -1.968503937007874072, 1.968503937007873850, 0.04330708661417323468 ) ) ;
#163 = AXIS2_PLACEMENT_3D ( 'NONE', #135, #168, #92 ) ;
#164 = CARTESIAN_POINT ( 'NONE',  ( -1.968503937007873628, -1.968503937007874516, 0.04330708661417323468 ) ) ;
#165 = LINE ( 'NONE', #140, #49 ) ;
#166 = DATE_AND_TIME ( #45, #225 ) ;
#167 =( NAMED_UNIT ( * ) SI_UNIT ( $, .STERADIAN. ) SOLID_ANGLE_UNIT ( ) );
#168 = DIRECTION ( 'NONE',  ( 0.000000000000000000, 1.000000000000000000, 0.000000000000000000 ) ) ;
#169 = VECTOR ( 'NONE', #209, 39.37007874015748143 ) ;
#170 = PERSON_AND_ORGANIZATION_ROLE ( 'design_owner' ) ;
#171 = APPROVAL_STATUS ( 'not_yet_approved' ) ;
#172 = EDGE_CURVE ( 'NONE', #226, #193, #165, .T. ) ;
#173 = DIRECTION ( 'NONE',  ( -1.387778780781445676E-16, 1.000000000000000000, 0.000000000000000000 ) ) ;
#174 = PRODUCT_DEFINITION ( 'UNKNOWN', '', #123, #86 ) ;
#175 = DIRECTION ( 'NONE',  ( -0.000000000000000000, -0.000000000000000000, -1.000000000000000000 ) ) ;
#176 = LINE ( 'NONE', #117, #19 ) ;
#177 = CARTESIAN_POINT ( 'NONE',  ( 1.968503937007874738, -1.968503937007874516, 0.000000000000000000 ) ) ;
#178 = ORIENTED_EDGE ( 'NONE', *, *, #100, .F. ) ;
#179 = PERSON_AND_ORGANIZATION ( #1, #216 ) ;
#180 = AXIS2_PLACEMENT_3D ( 'NONE', #116, #69, #121 ) ;
#181 = UNCERTAINTY_MEASURE_WITH_UNIT (LENGTH_MEASURE( 1.000000000000000082E-05 ), #235, 'distance_accuracy_value', 'NONE');
#182 = ORIENTED_EDGE ( 'NONE', *, *, #21, .T. ) ;
#183 = DIMENSIONAL_EXPONENTS ( 1.000000000000000000, 0.000000000000000000, 0.000000000000000000, 0.000000000000000000, 0.000000000000000000, 0.000000000000000000, 0.000000000000000000 ) ;
#184 = DIRECTION ( 'NONE',  ( -0.000000000000000000, -0.000000000000000000, -1.000000000000000000 ) ) ;
#185 = VECTOR ( 'NONE', #10, 39.37007874015748143 ) ;
#186 = DIRECTION ( 'NONE',  ( -1.387778780781445676E-16, 1.000000000000000000, -0.000000000000000000 ) ) ;
#187 = ORIENTED_EDGE ( 'NONE', *, *, #20, .T. ) ;
#188 = SECURITY_CLASSIFICATION_LEVEL ( 'unclassified' ) ;
#189 = CARTESIAN_POINT ( 'NONE',  ( -1.968503937007874072, 1.968503937007873850, 0.000000000000000000 ) ) ;
#190 =( GEOMETRIC_REPRESENTATION_CONTEXT ( 3 ) GLOBAL_UNCERTAINTY_ASSIGNED_CONTEXT ( ( #181 ) ) GLOBAL_UNIT_ASSIGNED_CONTEXT ( ( #235, #32, #167 ) ) REPRESENTATION_CONTEXT ( 'NONE', 'WORKASPACE' ) );
#191 = ORIENTED_EDGE ( 'NONE', *, *, #46, .F. ) ;
#192 = PERSON_AND_ORGANIZATION ( #1, #216 ) ;
#193 = VERTEX_POINT ( 'NONE', #164 ) ;
#194 = CC_DESIGN_APPROVAL ( #126, ( #79 ) ) ;
#195 = DATE_AND_TIME ( #4, #29 ) ;
#196 = CARTESIAN_POINT ( 'NONE',  ( -1.968503937007874072, 1.968503937007873850, 0.04330708661417323468 ) ) ;
#197 = FACE_OUTER_BOUND ( 'NONE', #156, .T. ) ;
#198 = ORIENTED_EDGE ( 'NONE', *, *, #103, .T. ) ;
#199 = DIRECTION ( 'NONE',  ( -0.000000000000000000, 0.000000000000000000, 1.000000000000000000 ) ) ;
#200 = CC_DESIGN_SECURITY_CLASSIFICATION ( #79, ( #123 ) ) ;
#201 = DIRECTION ( 'NONE',  ( 1.000000000000000000, 0.000000000000000000, 0.000000000000000000 ) ) ;
#202 = ORIENTED_EDGE ( 'NONE', *, *, #8, .F. ) ;
#203 = COORDINATED_UNIVERSAL_TIME_OFFSET ( 5, 0, .BEHIND. ) ;
#204 = VECTOR ( 'NONE', #5, 39.37007874015748143 ) ;
#205 = PERSON_AND_ORGANIZATION ( #1, #216 ) ;
#206 = AXIS2_PLACEMENT_3D ( 'NONE', #147, #18, #201 ) ;
#207 = VECTOR ( 'NONE', #158, 39.37007874015748143 ) ;
#208 = ORIENTED_EDGE ( 'NONE', *, *, #108, .F. ) ;
#209 = DIRECTION ( 'NONE',  ( 1.000000000000000000, 0.000000000000000000, 0.000000000000000000 ) ) ;
#210 = LINE ( 'NONE', #234, #64 ) ;
#211 = CC_DESIGN_PERSON_AND_ORGANIZATION_ASSIGNMENT ( #26, #152, ( #123 ) ) ;
#212 = ADVANCED_FACE ( 'NONE', ( #214 ), #94, .F. ) ;
#213 = DIRECTION ( 'NONE',  ( -0.000000000000000000, 0.000000000000000000, 1.000000000000000000 ) ) ;
#214 = FACE_OUTER_BOUND ( 'NONE', #35, .T. ) ;
#215 = PERSON_AND_ORGANIZATION ( #1, #216 ) ;
#216 = ORGANIZATION ( 'UNSPECIFIED', 'UNSPECIFIED', '' ) ;
#217 = CARTESIAN_POINT ( 'NONE',  ( 0.000000000000000000, 0.000000000000000000, 0.000000000000000000 ) ) ;
#218 = PLANE ( 'NONE',  #230 ) ;
#219 = COORDINATED_UNIVERSAL_TIME_OFFSET ( 5, 0, .BEHIND. ) ;
#220 = DATE_TIME_ROLE ( 'classification_date' ) ;
#221 = APPLICATION_CONTEXT ( 'configuration controlled 3d designs of mechanical parts and assemblies' ) ;
#222 = FACE_OUTER_BOUND ( 'NONE', #127, .T. ) ;
#223 = LOCAL_TIME ( 14, 58, 13.00000000000000000, #203 ) ;
#224 = ORIENTED_EDGE ( 'NONE', *, *, #8, .T. ) ;
#225 = LOCAL_TIME ( 14, 58, 13.00000000000000000, #161 ) ;
#226 = VERTEX_POINT ( 'NONE', #196 ) ;
#227 = DATE_AND_TIME ( #115, #23 ) ;
#228 = APPROVAL ( #53, 'UNSPECIFIED' ) ;
#229 = ORIENTED_EDGE ( 'NONE', *, *, #12, .T. ) ;
#230 = AXIS2_PLACEMENT_3D ( 'NONE', #217, #199, #31 ) ;
#231 = DIRECTION ( 'NONE',  ( 0.000000000000000000, -1.000000000000000000, 0.000000000000000000 ) ) ;
#232 = ADVANCED_FACE ( 'NONE', ( #80 ), #47, .F. ) ;
#233 = APPROVAL_PERSON_ORGANIZATION ( #205, #51, #240 ) ;
#234 = CARTESIAN_POINT ( 'NONE',  ( -1.968503937007873628, -1.968503937007874516, 0.04330708661417323468 ) ) ;
#235 =( CONVERSION_BASED_UNIT ( 'INCH', #106 ) LENGTH_UNIT ( ) NAMED_UNIT ( #183 ) );
#236 = DATE_TIME_ROLE ( 'creation_date' ) ;
#237 = MANIFOLD_SOLID_BREP ( 'Boss-Extrude1', #33 ) ;
#238 = ORIENTED_EDGE ( 'NONE', *, *, #108, .T. ) ;
#239 = EDGE_CURVE ( 'NONE', #193, #101, #210, .T. ) ;
#240 = APPROVAL_ROLE ( '' ) ;
ENDSEC;
END-ISO-10303-21;
