ISO-10303-21;
HEADER;
FILE_DESCRIPTION (( 'STEP AP203' ),
    '1' );
FILE_NAME ('step_47012.step',
    '2014-06-12T17:55:15',
    ( '' ),
    ( '' ),
    'SwSTEP 2.0',
    'SolidWorks 2014',
    '' );
FILE_SCHEMA (( 'CONFIG_CONTROL_DESIGN' ));
ENDSEC;

DATA;
#1 = CC_DESIGN_APPROVAL ( #3, ( #17 ) ) ;
#2 = LINE ( 'NONE', #92, #312 ) ;
#3 = APPROVAL ( #192, 'UNSPECIFIED' ) ;
#4 = ORIENTED_EDGE ( 'NONE', *, *, #230, .T. ) ;
#5 = EDGE_LOOP ( 'NONE', ( #304, #214, #261, #263 ) ) ;
#6 = CC_DESIGN_DATE_AND_TIME_ASSIGNMENT ( #120, #111, ( #17 ) ) ;
#7 = COORDINATED_UNIVERSAL_TIME_OFFSET ( 7, 0, .BEHIND. ) ;
#8 = CALENDAR_DATE ( 2014, 12, 6 ) ;
#9 = CC_DESIGN_PERSON_AND_ORGANIZATION_ASSIGNMENT ( #196, #86, ( #17 ) ) ;
#10 = DIRECTION ( 'NONE',  ( -1.000000000000000000, 0.0000000000000000000, 0.0000000000000000000 ) ) ;
#11 = LINE ( 'NONE', #222, #56 ) ;
#12 = FACE_OUTER_BOUND ( 'NONE', #90, .T. ) ;
#13 = CALENDAR_DATE ( 2014, 12, 6 ) ;
#14 = DIRECTION ( 'NONE',  ( 0.0000000000000000000, 0.0000000000000000000, 1.000000000000000000 ) ) ;
#15 = VERTEX_POINT ( 'NONE', #23 ) ;
#16 = ORIENTED_EDGE ( 'NONE', *, *, #101, .T. ) ;
#17 = SECURITY_CLASSIFICATION ( '', '', #153 ) ;
#18 = LOCAL_TIME ( 10, 55, 15.00000000000000000, #307 ) ;
#19 = PLANE ( 'NONE',  #176 ) ;
#20 = CC_DESIGN_PERSON_AND_ORGANIZATION_ASSIGNMENT ( #124, #216, ( #35 ) ) ;
#21 = ORIENTED_EDGE ( 'NONE', *, *, #178, .F. ) ;
#22 = CC_DESIGN_PERSON_AND_ORGANIZATION_ASSIGNMENT ( #182, #110, ( #35 ) ) ;
#23 = CARTESIAN_POINT ( 'NONE',  ( -2.449293598294706500E-015, 25.00000000000000000, 25.00000000000000000 ) ) ;
#24 = ORIENTED_EDGE ( 'NONE', *, *, #289, .T. ) ;
#25 = LOCAL_TIME ( 10, 55, 15.00000000000000000, #7 ) ;
#26 = CC_DESIGN_APPROVAL ( #30, ( #35 ) ) ;
#27 = VECTOR ( 'NONE', #309, 1000.000000000000000 ) ;
#28 = ORIENTED_EDGE ( 'NONE', *, *, #278, .T. ) ;
#29 = DESIGN_CONTEXT ( 'detailed design', #93, 'design' ) ;
#30 = APPROVAL ( #98, 'UNSPECIFIED' ) ;
#31 = LOCAL_TIME ( 10, 55, 15.00000000000000000, #99 ) ;
#32 = CARTESIAN_POINT ( 'NONE',  ( 0.0000000000000000000, 0.0000000000000000000, 0.0000000000000000000 ) ) ;
#33 = CARTESIAN_POINT ( 'NONE',  ( 25.00000000000000000, 0.0000000000000000000, 0.0000000000000000000 ) ) ;
#34 = FACE_OUTER_BOUND ( 'NONE', #144, .T. ) ;
#35 = PRODUCT_DEFINITION_FORMATION_WITH_SPECIFIED_SOURCE ( 'ANY', '', #108, .NOT_KNOWN. ) ;
#36 = PLANE ( 'NONE',  #248 ) ;
#37 = CALENDAR_DATE ( 2014, 12, 6 ) ;
#38 = CARTESIAN_POINT ( 'NONE',  ( -2.449293598294706500E-015, 25.00000000000000000, 0.0000000000000000000 ) ) ;
#39 = ADVANCED_FACE ( 'NONE', ( #73 ), #36, .F. ) ;
#40 = DIRECTION ( 'NONE',  ( -0.0000000000000000000, -0.0000000000000000000, -1.000000000000000000 ) ) ;
#41 = CARTESIAN_POINT ( 'NONE',  ( 0.0000000000000000000, 0.0000000000000000000, 25.00000000000000000 ) ) ;
#42 = MECHANICAL_CONTEXT ( 'NONE', #112, 'mechanical' ) ;
#43 = CC_DESIGN_DATE_AND_TIME_ASSIGNMENT ( #229, #119, ( #60 ) ) ;
#44 = PLANE ( 'NONE',  #190 ) ;
#45 = VECTOR ( 'NONE', #199, 1000.000000000000000 ) ;
#46 = CARTESIAN_POINT ( 'NONE',  ( -2.449293598294706500E-015, 25.00000000000000000, 25.00000000000000000 ) ) ;
#47 = DATE_AND_TIME ( #37, #18 ) ;
#48 = CC_DESIGN_PERSON_AND_ORGANIZATION_ASSIGNMENT ( #232, #97, ( #60 ) ) ;
#49 = EDGE_LOOP ( 'NONE', ( #133, #299, #28 ) ) ;
#50 = DIRECTION ( 'NONE',  ( -9.797174393178827400E-017, 1.000000000000000000, 0.0000000000000000000 ) ) ;
#51 = PLANE ( 'NONE',  #223 ) ;
#52 = ORIENTED_EDGE ( 'NONE', *, *, #85, .F. ) ;
#53 = DIRECTION ( 'NONE',  ( 1.000000000000000000, 9.797174393178827400E-017, -0.0000000000000000000 ) ) ;
#54 = EDGE_LOOP ( 'NONE', ( #159, #21, #253, #96 ) ) ;
#55 = CC_DESIGN_APPROVAL ( #58, ( #60 ) ) ;
#56 = VECTOR ( 'NONE', #239, 1000.000000000000000 ) ;
#57 = APPROVAL_DATE_TIME ( #47, #3 ) ;
#58 = APPROVAL ( #103, 'UNSPECIFIED' ) ;
#59 = VECTOR ( 'NONE', #258, 1000.000000000000000 ) ;
#60 = PRODUCT_DEFINITION ( 'UNKNOWN', '', #35, #29 ) ;
#61 = VECTOR ( 'NONE', #191, 1000.000000000000000 ) ;
#62 = CC_DESIGN_PERSON_AND_ORGANIZATION_ASSIGNMENT ( #165, #169, ( #108 ) ) ;
#63 = DIRECTION ( 'NONE',  ( 0.7071067811865474600, -0.7071067811865474600, 0.0000000000000000000 ) ) ;
#64 = DIRECTION ( 'NONE',  ( 0.0000000000000000000, 0.0000000000000000000, 1.000000000000000000 ) ) ;
#65 = CLOSED_SHELL ( 'NONE', ( #143, #39, #277, #89, #68 ) ) ;
#66 = DIRECTION ( 'NONE',  ( 1.000000000000000000, 0.0000000000000000000, -0.0000000000000000000 ) ) ;
#67 = VECTOR ( 'NONE', #40, 1000.000000000000000 ) ;
#68 = ADVANCED_FACE ( 'NONE', ( #243 ), #51, .F. ) ;
#69 = LINE ( 'NONE', #139, #173 ) ;
#70 = PERSON_AND_ORGANIZATION ( #303, #283 ) ;
#71 = CARTESIAN_POINT ( 'NONE',  ( 0.0000000000000000000, 0.0000000000000000000, 0.0000000000000000000 ) ) ;
#72 = DIRECTION ( 'NONE',  ( 0.0000000000000000000, 0.0000000000000000000, 1.000000000000000000 ) ) ;
#73 = FACE_OUTER_BOUND ( 'NONE', #5, .T. ) ;
#74 = AXIS2_PLACEMENT_3D ( 'NONE', #234, #72, #95 ) ;
#75 = CARTESIAN_POINT ( 'NONE',  ( -2.449293598294706500E-015, 25.00000000000000000, 0.0000000000000000000 ) ) ;
#76 = CARTESIAN_POINT ( 'NONE',  ( 25.00000000000000000, 25.00000000000000400, 25.00000000000000000 ) ) ;
#77 =( NAMED_UNIT ( * ) SI_UNIT ( $, .STERADIAN. ) SOLID_ANGLE_UNIT ( ) );
#78 = DIRECTION ( 'NONE',  ( 0.0000000000000000000, 1.000000000000000000, 0.0000000000000000000 ) ) ;
#79 = VECTOR ( 'NONE', #212, 1000.000000000000000 ) ;
#80 = LINE ( 'NONE', #285, #140 ) ;
#81 = CARTESIAN_POINT ( 'NONE',  ( -2.449293598294706500E-015, 25.00000000000000000, 25.00000000000000000 ) ) ;
#82 = ORIENTED_EDGE ( 'NONE', *, *, #314, .F. ) ;
#83 =( NAMED_UNIT ( * ) PLANE_ANGLE_UNIT ( ) SI_UNIT ( $, .RADIAN. ) );
#84 = VERTEX_POINT ( 'NONE', #33 ) ;
#85 = EDGE_CURVE ( 'NONE', #168, #84, #87, .T. ) ;
#86 = PERSON_AND_ORGANIZATION_ROLE ( 'classification_officer' ) ;
#87 = LINE ( 'NONE', #118, #206 ) ;
#88 = ORIENTED_EDGE ( 'NONE', *, *, #230, .F. ) ;
#89 = ADVANCED_FACE ( 'NONE', ( #12 ), #255, .T. ) ;
#90 = EDGE_LOOP ( 'NONE', ( #4, #274, #16 ) ) ;
#91 = PERSON_AND_ORGANIZATION ( #303, #283 ) ;
#92 = CARTESIAN_POINT ( 'NONE',  ( 25.00000000000000000, 0.0000000000000000000, 25.00000000000000000 ) ) ;
#93 = APPLICATION_CONTEXT ( 'configuration controlled 3d designs of mechanical parts and assemblies' ) ;
#94 = PLANE ( 'NONE',  #148 ) ;
#95 = DIRECTION ( 'NONE',  ( 1.000000000000000000, 0.0000000000000000000, 0.0000000000000000000 ) ) ;
#96 = ORIENTED_EDGE ( 'NONE', *, *, #208, .T. ) ;
#97 = PERSON_AND_ORGANIZATION_ROLE ( 'creator' ) ;
#98 = APPROVAL_STATUS ( 'not_yet_approved' ) ;
#99 = COORDINATED_UNIVERSAL_TIME_OFFSET ( 7, 0, .BEHIND. ) ;
#100 = APPLICATION_PROTOCOL_DEFINITION ( 'international standard', 'config_control_design', 1994, #112 ) ;
#101 = EDGE_CURVE ( 'NONE', #198, #207, #300, .T. ) ;
#102 = CC_DESIGN_SECURITY_CLASSIFICATION ( #17, ( #35 ) ) ;
#103 = APPROVAL_STATUS ( 'not_yet_approved' ) ;
#104 = ORIENTED_EDGE ( 'NONE', *, *, #264, .F. ) ;
#105 = DIRECTION ( 'NONE',  ( 0.7071067811865474600, -0.7071067811865474600, 0.0000000000000000000 ) ) ;
#106 = AXIS2_PLACEMENT_3D ( 'NONE', #71, #189, #122 ) ;
#107 =( GEOMETRIC_REPRESENTATION_CONTEXT ( 3 ) GLOBAL_UNCERTAINTY_ASSIGNED_CONTEXT ( ( #158 ) ) GLOBAL_UNIT_ASSIGNED_CONTEXT ( ( #310, #83, #77 ) ) REPRESENTATION_CONTEXT ( 'NONE', 'WORKASPACE' ) );
#108 = PRODUCT ( 'step_47012', 'step_47012', '', ( #42 ) ) ;
#109 = AXIS2_PLACEMENT_3D ( 'NONE', #226, #78, #188 ) ;
#110 = PERSON_AND_ORGANIZATION_ROLE ( 'creator' ) ;
#111 = DATE_TIME_ROLE ( 'classification_date' ) ;
#112 = APPLICATION_CONTEXT ( 'configuration controlled 3d designs of mechanical parts and assemblies' ) ;
#113 = DATE_AND_TIME ( #8, #254 ) ;
#114 = DIRECTION ( 'NONE',  ( -0.7071067811865474600, 0.7071067811865474600, 0.0000000000000000000 ) ) ;
#115 = ORIENTED_EDGE ( 'NONE', *, *, #273, .F. ) ;
#116 = DIRECTION ( 'NONE',  ( -0.0000000000000000000, -0.0000000000000000000, -1.000000000000000000 ) ) ;
#117 = VERTEX_POINT ( 'NONE', #305 ) ;
#118 = CARTESIAN_POINT ( 'NONE',  ( -2.449293598294706500E-015, 25.00000000000000000, 0.0000000000000000000 ) ) ;
#119 = DATE_TIME_ROLE ( 'creation_date' ) ;
#120 = DATE_AND_TIME ( #301, #25 ) ;
#121 = AXIS2_PLACEMENT_3D ( 'NONE', #146, #210, #219 ) ;
#122 = DIRECTION ( 'NONE',  ( -1.000000000000000000, 0.0000000000000000000, 0.0000000000000000000 ) ) ;
#123 = LINE ( 'NONE', #177, #266 ) ;
#124 = PERSON_AND_ORGANIZATION ( #303, #283 ) ;
#125 = CARTESIAN_POINT ( 'NONE',  ( 25.00000000000000000, 0.0000000000000000000, 25.00000000000000000 ) ) ;
#126 = ORIENTED_EDGE ( 'NONE', *, *, #135, .T. ) ;
#127 = APPROVAL_ROLE ( '' ) ;
#128 = LINE ( 'NONE', #218, #233 ) ;
#129 = LINE ( 'NONE', #151, #281 ) ;
#130 = VERTEX_POINT ( 'NONE', #220 ) ;
#131 = VERTEX_POINT ( 'NONE', #262 ) ;
#132 = VECTOR ( 'NONE', #215, 1000.000000000000000 ) ;
#133 = ORIENTED_EDGE ( 'NONE', *, *, #314, .T. ) ;
#134 = ORIENTED_EDGE ( 'NONE', *, *, #135, .F. ) ;
#135 = EDGE_CURVE ( 'NONE', #15, #168, #257, .T. ) ;
#136 = PERSON_AND_ORGANIZATION ( #303, #283 ) ;
#137 = APPROVAL_PERSON_ORGANIZATION ( #70, #58, #213 ) ;
#138 = EDGE_LOOP ( 'NONE', ( #224, #134, #82, #265 ) ) ;
#139 = CARTESIAN_POINT ( 'NONE',  ( 0.0000000000000000000, 0.0000000000000000000, 25.00000000000000000 ) ) ;
#140 = VECTOR ( 'NONE', #114, 1000.000000000000100 ) ;
#141 = FACE_OUTER_BOUND ( 'NONE', #204, .T. ) ;
#142 = PLANE ( 'NONE',  #121 ) ;
#143 = ADVANCED_FACE ( 'NONE', ( #205 ), #245, .F. ) ;
#144 = EDGE_LOOP ( 'NONE', ( #250, #157, #52 ) ) ;
#145 = VERTEX_POINT ( 'NONE', #260 ) ;
#146 = CARTESIAN_POINT ( 'NONE',  ( -2.449293598294706500E-015, 25.00000000000000000, 25.00000000000000000 ) ) ;
#147 = PLANE ( 'NONE',  #109 ) ;
#148 = AXIS2_PLACEMENT_3D ( 'NONE', #149, #164, #290 ) ;
#149 = CARTESIAN_POINT ( 'NONE',  ( 0.0000000000000000000, 0.0000000000000000000, 25.00000000000000000 ) ) ;
#150 = SHAPE_DEFINITION_REPRESENTATION ( #298, #228 ) ;
#151 = CARTESIAN_POINT ( 'NONE',  ( -2.449293598294706500E-015, 25.00000000000000000, 25.00000000000000000 ) ) ;
#152 = ORIENTED_EDGE ( 'NONE', *, *, #276, .T. ) ;
#153 = SECURITY_CLASSIFICATION_LEVEL ( 'unclassified' ) ;
#154 = MANIFOLD_SOLID_BREP ( 'Boss-Extrude1', #65 ) ;
#155 = FACE_OUTER_BOUND ( 'NONE', #54, .T. ) ;
#156 = EDGE_CURVE ( 'NONE', #145, #320, #80, .T. ) ;
#157 = ORIENTED_EDGE ( 'NONE', *, *, #289, .F. ) ;
#158 = UNCERTAINTY_MEASURE_WITH_UNIT (LENGTH_MEASURE( 1.000000000000000100E-005 ), #310, 'distance_accuracy_value', 'NONE');
#159 = ORIENTED_EDGE ( 'NONE', *, *, #160, .T. ) ;
#160 = EDGE_CURVE ( 'NONE', #131, #145, #293, .T. ) ;
#161 = APPROVAL_DATE_TIME ( #113, #30 ) ;
#162 = ORIENTED_EDGE ( 'NONE', *, *, #178, .T. ) ;
#163 = APPLICATION_PROTOCOL_DEFINITION ( 'international standard', 'config_control_design', 1994, #93 ) ;
#164 = DIRECTION ( 'NONE',  ( 0.0000000000000000000, 0.0000000000000000000, -1.000000000000000000 ) ) ;
#165 = PERSON_AND_ORGANIZATION ( #303, #283 ) ;
#166 = CARTESIAN_POINT ( 'NONE',  ( 0.0000000000000000000, 0.0000000000000000000, 25.00000000000000000 ) ) ;
#167 = ADVANCED_FACE ( 'NONE', ( #141 ), #44, .F. ) ;
#168 = VERTEX_POINT ( 'NONE', #185 ) ;
#169 = PERSON_AND_ORGANIZATION_ROLE ( 'design_owner' ) ;
#170 = CARTESIAN_POINT ( 'NONE',  ( -2.449293598294706500E-015, 25.00000000000000000, 25.00000000000000000 ) ) ;
#171 = DIRECTION ( 'NONE',  ( 1.000000000000000000, 0.0000000000000000000, 0.0000000000000000000 ) ) ;
#172 = DIRECTION ( 'NONE',  ( 9.797174393178826200E-017, -1.000000000000000000, 0.0000000000000000000 ) ) ;
#173 = VECTOR ( 'NONE', #195, 1000.000000000000000 ) ;
#174 = DIRECTION ( 'NONE',  ( 1.387778780781445400E-016, -1.000000000000000000, 0.0000000000000000000 ) ) ;
#175 = ORIENTED_EDGE ( 'NONE', *, *, #319, .F. ) ;
#176 = AXIS2_PLACEMENT_3D ( 'NONE', #193, #174, #313 ) ;
#177 = CARTESIAN_POINT ( 'NONE',  ( 25.00000000000000000, 25.00000000000000400, 25.00000000000000000 ) ) ;
#178 = EDGE_CURVE ( 'NONE', #207, #145, #11, .T. ) ;
#179 = FACE_OUTER_BOUND ( 'NONE', #138, .T. ) ;
#180 = CALENDAR_DATE ( 2014, 12, 6 ) ;
#181 = VECTOR ( 'NONE', #171, 1000.000000000000000 ) ;
#182 = PERSON_AND_ORGANIZATION ( #303, #283 ) ;
#183 = ADVANCED_FACE ( 'NONE', ( #179 ), #19, .F. ) ;
#184 = EDGE_CURVE ( 'NONE', #117, #168, #202, .T. ) ;
#185 = CARTESIAN_POINT ( 'NONE',  ( -2.449293598294706500E-015, 25.00000000000000000, 0.0000000000000000000 ) ) ;
#186 = VECTOR ( 'NONE', #105, 1000.000000000000100 ) ;
#187 = APPROVAL_PERSON_ORGANIZATION ( #91, #30, #127 ) ;
#188 = DIRECTION ( 'NONE',  ( 0.0000000000000000000, -0.0000000000000000000, 1.000000000000000000 ) ) ;
#189 = DIRECTION ( 'NONE',  ( 0.0000000000000000000, 0.0000000000000000000, -1.000000000000000000 ) ) ;
#190 = AXIS2_PLACEMENT_3D ( 'NONE', #200, #10, #14 ) ;
#191 = DIRECTION ( 'NONE',  ( 0.0000000000000000000, 1.000000000000000000, 0.0000000000000000000 ) ) ;
#192 = APPROVAL_STATUS ( 'not_yet_approved' ) ;
#193 = CARTESIAN_POINT ( 'NONE',  ( 25.00000000000000000, 25.00000000000000400, 25.00000000000000000 ) ) ;
#194 = ORIENTED_EDGE ( 'NONE', *, *, #156, .F. ) ;
#195 = DIRECTION ( 'NONE',  ( -0.0000000000000000000, -0.0000000000000000000, -1.000000000000000000 ) ) ;
#196 = PERSON_AND_ORGANIZATION ( #303, #283 ) ;
#197 = DIRECTION ( 'NONE',  ( 0.0000000000000000000, 1.000000000000000000, 0.0000000000000000000 ) ) ;
#198 = VERTEX_POINT ( 'NONE', #41 ) ;
#199 = DIRECTION ( 'NONE',  ( 9.797174393178826200E-017, -1.000000000000000000, 0.0000000000000000000 ) ) ;
#200 = CARTESIAN_POINT ( 'NONE',  ( 25.00000000000000000, 0.0000000000000000000, 25.00000000000000000 ) ) ;
#201 = LINE ( 'NONE', #125, #244 ) ;
#202 = LINE ( 'NONE', #308, #132 ) ;
#203 = AXIS2_PLACEMENT_3D ( 'NONE', #267, #279, #280 ) ;
#204 = EDGE_LOOP ( 'NONE', ( #24, #175, #286, #152 ) ) ;
#205 = FACE_OUTER_BOUND ( 'NONE', #269, .T. ) ;
#206 = VECTOR ( 'NONE', #63, 1000.000000000000100 ) ;
#207 = VERTEX_POINT ( 'NONE', #316 ) ;
#208 = EDGE_CURVE ( 'NONE', #198, #131, #69, .T. ) ;
#209 = VERTEX_POINT ( 'NONE', #242 ) ;
#210 = DIRECTION ( 'NONE',  ( 0.7071067811865475700, 0.7071067811865475700, -0.0000000000000000000 ) ) ;
#211 = AXIS2_PLACEMENT_3D ( 'NONE', #315, #297, #225 ) ;
#212 = DIRECTION ( 'NONE',  ( 1.000000000000000000, 0.0000000000000000000, 0.0000000000000000000 ) ) ;
#213 = APPROVAL_ROLE ( '' ) ;
#214 = ORIENTED_EDGE ( 'NONE', *, *, #208, .F. ) ;
#215 = DIRECTION ( 'NONE',  ( -1.000000000000000000, -1.387778780781445400E-016, 0.0000000000000000000 ) ) ;
#216 = PERSON_AND_ORGANIZATION_ROLE ( 'design_supplier' ) ;
#217 = CLOSED_SHELL ( 'NONE', ( #183, #259, #167, #238, #287 ) ) ;
#218 = CARTESIAN_POINT ( 'NONE',  ( 25.00000000000000000, 0.0000000000000000000, 25.00000000000000000 ) ) ;
#219 = DIRECTION ( 'NONE',  ( -0.7071067811865474600, 0.7071067811865474600, 0.0000000000000000000 ) ) ;
#220 = CARTESIAN_POINT ( 'NONE',  ( -2.449293598294706500E-015, 25.00000000000000000, 25.00000000000000000 ) ) ;
#221 = CARTESIAN_POINT ( 'NONE',  ( -2.449293598294706500E-015, 25.00000000000000000, 25.00000000000000000 ) ) ;
#222 = CARTESIAN_POINT ( 'NONE',  ( 25.00000000000000000, 0.0000000000000000000, 25.00000000000000000 ) ) ;
#223 = AXIS2_PLACEMENT_3D ( 'NONE', #32, #64, #66 ) ;
#224 = ORIENTED_EDGE ( 'NONE', *, *, #184, .T. ) ;
#225 = DIRECTION ( 'NONE',  ( 1.000000000000000000, 0.0000000000000000000, -0.0000000000000000000 ) ) ;
#226 = CARTESIAN_POINT ( 'NONE',  ( 0.0000000000000000000, 0.0000000000000000000, 25.00000000000000000 ) ) ;
#227 = ORIENTED_EDGE ( 'NONE', *, *, #156, .T. ) ;
#228 = ADVANCED_BREP_SHAPE_REPRESENTATION ( 'step_47012', ( #154, #291, #74 ), #107 ) ;
#229 = DATE_AND_TIME ( #180, #272 ) ;
#230 = EDGE_CURVE ( 'NONE', #207, #130, #2, .T. ) ;
#231 = COORDINATED_UNIVERSAL_TIME_OFFSET ( 7, 0, .BEHIND. ) ;
#232 = PERSON_AND_ORGANIZATION ( #303, #283 ) ;
#233 = VECTOR ( 'NONE', #197, 1000.000000000000000 ) ;
#234 = CARTESIAN_POINT ( 'NONE',  ( 0.0000000000000000000, 0.0000000000000000000, 0.0000000000000000000 ) ) ;
#235 = APPROVAL_DATE_TIME ( #302, #58 ) ;
#236 = PRODUCT_RELATED_PRODUCT_CATEGORY ( 'detail', '', ( #108 ) ) ;
#237 = DIRECTION ( 'NONE',  ( -0.7071067811865474600, 0.7071067811865474600, 0.0000000000000000000 ) ) ;
#238 = ADVANCED_FACE ( 'NONE', ( #311 ), #94, .F. ) ;
#239 = DIRECTION ( 'NONE',  ( -0.0000000000000000000, -0.0000000000000000000, -1.000000000000000000 ) ) ;
#240 = DIRECTION ( 'NONE',  ( -0.0000000000000000000, -0.0000000000000000000, -1.000000000000000000 ) ) ;
#241 = LINE ( 'NONE', #317, #27 ) ;
#242 = CARTESIAN_POINT ( 'NONE',  ( 25.00000000000000000, 0.0000000000000000000, 25.00000000000000000 ) ) ;
#243 = FACE_OUTER_BOUND ( 'NONE', #247, .T. ) ;
#244 = VECTOR ( 'NONE', #116, 1000.000000000000000 ) ;
#245 = PLANE ( 'NONE',  #203 ) ;
#246 = APPROVAL_PERSON_ORGANIZATION ( #136, #3, #251 ) ;
#247 = EDGE_LOOP ( 'NONE', ( #194, #318, #104 ) ) ;
#248 = AXIS2_PLACEMENT_3D ( 'NONE', #46, #53, #50 ) ;
#249 = LINE ( 'NONE', #38, #45 ) ;
#250 = ORIENTED_EDGE ( 'NONE', *, *, #184, .F. ) ;
#251 = APPROVAL_ROLE ( '' ) ;
#252 = FACE_OUTER_BOUND ( 'NONE', #268, .T. ) ;
#253 = ORIENTED_EDGE ( 'NONE', *, *, #101, .F. ) ;
#254 = LOCAL_TIME ( 10, 55, 15.00000000000000000, #284 ) ;
#255 = PLANE ( 'NONE',  #211 ) ;
#256 = CARTESIAN_POINT ( 'NONE',  ( 0.0000000000000000000, 0.0000000000000000000, 0.0000000000000000000 ) ) ;
#257 = LINE ( 'NONE', #81, #59 ) ;
#258 = DIRECTION ( 'NONE',  ( -0.0000000000000000000, -0.0000000000000000000, -1.000000000000000000 ) ) ;
#259 = ADVANCED_FACE ( 'NONE', ( #252 ), #142, .F. ) ;
#260 = CARTESIAN_POINT ( 'NONE',  ( 25.00000000000000000, 0.0000000000000000000, 0.0000000000000000000 ) ) ;
#261 = ORIENTED_EDGE ( 'NONE', *, *, #270, .F. ) ;
#262 = CARTESIAN_POINT ( 'NONE',  ( 0.0000000000000000000, 0.0000000000000000000, 0.0000000000000000000 ) ) ;
#263 = ORIENTED_EDGE ( 'NONE', *, *, #273, .T. ) ;
#264 = EDGE_CURVE ( 'NONE', #320, #131, #249, .T. ) ;
#265 = ORIENTED_EDGE ( 'NONE', *, *, #319, .T. ) ;
#266 = VECTOR ( 'NONE', #240, 1000.000000000000000 ) ;
#267 = CARTESIAN_POINT ( 'NONE',  ( 25.00000000000000000, 0.0000000000000000000, 25.00000000000000000 ) ) ;
#268 = EDGE_LOOP ( 'NONE', ( #295, #275, #321, #126 ) ) ;
#269 = EDGE_LOOP ( 'NONE', ( #227, #115, #88, #162 ) ) ;
#270 = EDGE_CURVE ( 'NONE', #130, #198, #129, .T. ) ;
#271 = LINE ( 'NONE', #294, #61 ) ;
#272 = LOCAL_TIME ( 10, 55, 15.00000000000000000, #231 ) ;
#273 = EDGE_CURVE ( 'NONE', #130, #320, #282, .T. ) ;
#274 = ORIENTED_EDGE ( 'NONE', *, *, #270, .T. ) ;
#275 = ORIENTED_EDGE ( 'NONE', *, *, #276, .F. ) ;
#276 = EDGE_CURVE ( 'NONE', #209, #84, #201, .T. ) ;
#277 = ADVANCED_FACE ( 'NONE', ( #155 ), #147, .F. ) ;
#278 = EDGE_CURVE ( 'NONE', #209, #288, #128, .T. ) ;
#279 = DIRECTION ( 'NONE',  ( -0.7071067811865475700, -0.7071067811865475700, 0.0000000000000000000 ) ) ;
#280 = DIRECTION ( 'NONE',  ( 0.7071067811865474600, -0.7071067811865474600, 0.0000000000000000000 ) ) ;
#281 = VECTOR ( 'NONE', #172, 1000.000000000000000 ) ;
#282 = LINE ( 'NONE', #221, #67 ) ;
#283 = ORGANIZATION ( 'UNSPECIFIED', 'UNSPECIFIED', '' ) ;
#284 = COORDINATED_UNIVERSAL_TIME_OFFSET ( 7, 0, .BEHIND. ) ;
#285 = CARTESIAN_POINT ( 'NONE',  ( 25.00000000000000000, 0.0000000000000000000, 0.0000000000000000000 ) ) ;
#286 = ORIENTED_EDGE ( 'NONE', *, *, #278, .F. ) ;
#287 = ADVANCED_FACE ( 'NONE', ( #34 ), #296, .T. ) ;
#288 = VERTEX_POINT ( 'NONE', #76 ) ;
#289 = EDGE_CURVE ( 'NONE', #84, #117, #271, .T. ) ;
#290 = DIRECTION ( 'NONE',  ( -1.000000000000000000, 0.0000000000000000000, 0.0000000000000000000 ) ) ;
#291 = MANIFOLD_SOLID_BREP ( 'Boss-Extrude2', #217 ) ;
#292 = EDGE_CURVE ( 'NONE', #15, #209, #306, .T. ) ;
#293 = LINE ( 'NONE', #256, #79 ) ;
#294 = CARTESIAN_POINT ( 'NONE',  ( 25.00000000000000000, 0.0000000000000000000, 0.0000000000000000000 ) ) ;
#295 = ORIENTED_EDGE ( 'NONE', *, *, #85, .T. ) ;
#296 = PLANE ( 'NONE',  #106 ) ;
#297 = DIRECTION ( 'NONE',  ( 0.0000000000000000000, 0.0000000000000000000, 1.000000000000000000 ) ) ;
#298 = PRODUCT_DEFINITION_SHAPE ( 'NONE', 'NONE',  #60 ) ;
#299 = ORIENTED_EDGE ( 'NONE', *, *, #292, .T. ) ;
#300 = LINE ( 'NONE', #166, #181 ) ;
#301 = CALENDAR_DATE ( 2014, 12, 6 ) ;
#302 = DATE_AND_TIME ( #13, #31 ) ;
#303 = PERSON ( 'UNSPECIFIED', 'UNSPECIFIED', 'UNSPECIFIED', ('UNSPECIFIED'), ('UNSPECIFIED'), ('UNSPECIFIED') ) ;
#304 = ORIENTED_EDGE ( 'NONE', *, *, #264, .T. ) ;
#305 = CARTESIAN_POINT ( 'NONE',  ( 25.00000000000000000, 25.00000000000000400, 0.0000000000000000000 ) ) ;
#306 = LINE ( 'NONE', #170, #186 ) ;
#307 = COORDINATED_UNIVERSAL_TIME_OFFSET ( 7, 0, .BEHIND. ) ;
#308 = CARTESIAN_POINT ( 'NONE',  ( 25.00000000000000000, 25.00000000000000400, 0.0000000000000000000 ) ) ;
#309 = DIRECTION ( 'NONE',  ( -1.000000000000000000, -1.387778780781445400E-016, 0.0000000000000000000 ) ) ;
#310 =( LENGTH_UNIT ( ) NAMED_UNIT ( * ) SI_UNIT ( .MILLI., .METRE. ) );
#311 = FACE_OUTER_BOUND ( 'NONE', #49, .T. ) ;
#312 = VECTOR ( 'NONE', #237, 1000.000000000000100 ) ;
#313 = DIRECTION ( 'NONE',  ( 1.000000000000000000, 1.387778780781445400E-016, 0.0000000000000000000 ) ) ;
#314 = EDGE_CURVE ( 'NONE', #288, #15, #241, .T. ) ;
#315 = CARTESIAN_POINT ( 'NONE',  ( 0.0000000000000000000, 0.0000000000000000000, 25.00000000000000000 ) ) ;
#316 = CARTESIAN_POINT ( 'NONE',  ( 25.00000000000000000, 0.0000000000000000000, 25.00000000000000000 ) ) ;
#317 = CARTESIAN_POINT ( 'NONE',  ( 25.00000000000000000, 25.00000000000000400, 25.00000000000000000 ) ) ;
#318 = ORIENTED_EDGE ( 'NONE', *, *, #160, .F. ) ;
#319 = EDGE_CURVE ( 'NONE', #288, #117, #123, .T. ) ;
#320 = VERTEX_POINT ( 'NONE', #75 ) ;
#321 = ORIENTED_EDGE ( 'NONE', *, *, #292, .F. ) ;
ENDSEC;
END-ISO-10303-21;
