ISO-10303-21;
HEADER;
FILE_DESCRIPTION (( 'STEP AP203' ),
    '1' );
FILE_NAME ('Web Model 11734_17286.step',
    '2021-04-12T20:56:59',
    ( '' ),
    ( '' ),
    'SwSTEP 2.0',
    'SolidWorks 2018',
    '' );
FILE_SCHEMA (( 'CONFIG_CONTROL_DESIGN' ));
ENDSEC;

DATA;
#1 = DATE_AND_TIME ( #82, #21 ) ;
#2 = CARTESIAN_POINT ( 'NONE',  ( 16.05584544168940653, 23.84921129162025721, 45.50988071180626093 ) ) ;
#3 = DIRECTION ( 'NONE',  ( -0.000000000000000000, -0.000000000000000000, -1.000000000000000000 ) ) ;
#4 = APPROVAL_ROLE ( '' ) ;
#5 =( NAMED_UNIT ( * ) PLANE_ANGLE_UNIT ( ) SI_UNIT ( $, .RADIAN. ) );
#6 = FACE_OUTER_BOUND ( 'NONE', #17, .T. ) ;
#7 = DATE_AND_TIME ( #130, #166 ) ;
#8 = ADVANCED_FACE ( 'NONE', ( #147 ), #124, .F. ) ;
#9 = COORDINATED_UNIVERSAL_TIME_OFFSET ( 5, 0, .BEHIND. ) ;
#10 = CARTESIAN_POINT ( 'NONE',  ( 16.05584544168940653, 23.84921129162025721, 45.50988071180626093 ) ) ;
#11 = AXIS2_PLACEMENT_3D ( 'NONE', #23, #27, #47 ) ;
#12 = ORIENTED_EDGE ( 'NONE', *, *, #164, .T. ) ;
#13 = APPROVAL_ROLE ( '' ) ;
#14 = ORIENTED_EDGE ( 'NONE', *, *, #31, .T. ) ;
#15 = PERSON_AND_ORGANIZATION_ROLE ( 'creator' ) ;
#16 = SHAPE_DEFINITION_REPRESENTATION ( #160, #134 ) ;
#17 = EDGE_LOOP ( 'NONE', ( #58, #12, #66, #56 ) ) ;
#18 = AXIS2_PLACEMENT_3D ( 'NONE', #159, #99, #101 ) ;
#19 = COORDINATED_UNIVERSAL_TIME_OFFSET ( 5, 0, .BEHIND. ) ;
#20 = FACE_OUTER_BOUND ( 'NONE', #170, .T. ) ;
#21 = LOCAL_TIME ( 16, 56, 59.00000000000000000, #67 ) ;
#22 = DIRECTION ( 'NONE',  ( -0.000000000000000000, -0.000000000000000000, -1.000000000000000000 ) ) ;
#23 = CARTESIAN_POINT ( 'NONE',  ( 16.05584544168940653, 23.84921129162025721, 45.50988071180626093 ) ) ;
#24 = DIRECTION ( 'NONE',  ( 0.000000000000000000, 0.000000000000000000, 1.000000000000000000 ) ) ;
#25 = CC_DESIGN_PERSON_AND_ORGANIZATION_ASSIGNMENT ( #75, #149, ( #146 ) ) ;
#26 = AXIS2_PLACEMENT_3D ( 'NONE', #86, #24, #163 ) ;
#27 = DIRECTION ( 'NONE',  ( 0.000000000000000000, 0.000000000000000000, 1.000000000000000000 ) ) ;
#28 = MECHANICAL_CONTEXT ( 'NONE', #63, 'mechanical' ) ;
#29 = PERSON_AND_ORGANIZATION ( #79, #154 ) ;
#30 = CIRCLE ( 'NONE', #98, 6.350000000000001421 ) ;
#31 = EDGE_CURVE ( 'NONE', #92, #143, #30, .T. ) ;
#32 = DIRECTION ( 'NONE',  ( -0.000000000000000000, -0.000000000000000000, -1.000000000000000000 ) ) ;
#33 =( LENGTH_UNIT ( ) NAMED_UNIT ( * ) SI_UNIT ( .MILLI., .METRE. ) );
#34 = PERSON_AND_ORGANIZATION ( #79, #154 ) ;
#35 = VECTOR ( 'NONE', #32, 1000.000000000000000 ) ;
#36 = LINE ( 'NONE', #118, #35 ) ;
#37 = AXIS2_PLACEMENT_3D ( 'NONE', #10, #44, #85 ) ;
#38 = CALENDAR_DATE ( 2021, 12, 4 ) ;
#39 = CLOSED_SHELL ( 'NONE', ( #153, #120, #72, #8 ) ) ;
#40 = PERSON_AND_ORGANIZATION ( #79, #154 ) ;
#41 = CC_DESIGN_DATE_AND_TIME_ASSIGNMENT ( #7, #52, ( #71 ) ) ;
#42 = PRODUCT_DEFINITION ( 'UNKNOWN', '', #146, #114 ) ;
#43 = CARTESIAN_POINT ( 'NONE',  ( 16.05584544168940653, 23.84921129162025721, 39.15988071180625951 ) ) ;
#44 = DIRECTION ( 'NONE',  ( -0.000000000000000000, -0.000000000000000000, -1.000000000000000000 ) ) ;
#45 = CARTESIAN_POINT ( 'NONE',  ( 22.40584544168940795, 23.84921129162025721, 45.50988071180626093 ) ) ;
#46 = CIRCLE ( 'NONE', #18, 6.350000000000001421 ) ;
#47 = DIRECTION ( 'NONE',  ( 1.000000000000000000, 0.000000000000000000, 0.000000000000000000 ) ) ;
#48 = APPROVAL_STATUS ( 'not_yet_approved' ) ;
#49 = APPROVAL ( #48, 'UNSPECIFIED' ) ;
#50 = PERSON_AND_ORGANIZATION ( #79, #154 ) ;
#51 = CARTESIAN_POINT ( 'NONE',  ( 16.05584544168940653, 23.84921129162025721, 39.15988071180625951 ) ) ;
#52 = DATE_TIME_ROLE ( 'classification_date' ) ;
#53 = UNCERTAINTY_MEASURE_WITH_UNIT (LENGTH_MEASURE( 1.000000000000000082E-05 ), #33, 'distance_accuracy_value', 'NONE');
#54 = CC_DESIGN_PERSON_AND_ORGANIZATION_ASSIGNMENT ( #34, #15, ( #42 ) ) ;
#55 = CALENDAR_DATE ( 2021, 12, 4 ) ;
#56 = ORIENTED_EDGE ( 'NONE', *, *, #158, .F. ) ;
#57 = CARTESIAN_POINT ( 'NONE',  ( 0.000000000000000000, 0.000000000000000000, 0.000000000000000000 ) ) ;
#58 = ORIENTED_EDGE ( 'NONE', *, *, #125, .F. ) ;
#59 = APPROVAL ( #127, 'UNSPECIFIED' ) ;
#60 = DIRECTION ( 'NONE',  ( 1.000000000000000000, 0.000000000000000000, 0.000000000000000000 ) ) ;
#61 = APPLICATION_CONTEXT ( 'configuration controlled 3d designs of mechanical parts and assemblies' ) ;
#62 = VERTEX_POINT ( 'NONE', #45 ) ;
#63 = APPLICATION_CONTEXT ( 'configuration controlled 3d designs of mechanical parts and assemblies' ) ;
#64 = APPROVAL_DATE_TIME ( #129, #131 ) ;
#65 = CC_DESIGN_DATE_AND_TIME_ASSIGNMENT ( #150, #126, ( #42 ) ) ;
#66 = ORIENTED_EDGE ( 'NONE', *, *, #155, .T. ) ;
#67 = COORDINATED_UNIVERSAL_TIME_OFFSET ( 5, 0, .BEHIND. ) ;
#68 = LINE ( 'NONE', #117, #173 ) ;
#69 = EDGE_LOOP ( 'NONE', ( #110, #174 ) ) ;
#70 = APPROVAL_DATE_TIME ( #88, #59 ) ;
#71 = SECURITY_CLASSIFICATION ( '', '', #108 ) ;
#72 = ADVANCED_FACE ( 'NONE', ( #172 ), #102, .T. ) ;
#73 = LOCAL_TIME ( 16, 56, 59.00000000000000000, #9 ) ;
#74 = AXIS2_PLACEMENT_3D ( 'NONE', #145, #22, #165 ) ;
#75 = PERSON_AND_ORGANIZATION ( #79, #154 ) ;
#76 = CC_DESIGN_APPROVAL ( #49, ( #146 ) ) ;
#77 = CC_DESIGN_PERSON_AND_ORGANIZATION_ASSIGNMENT ( #29, #105, ( #93 ) ) ;
#78 = LOCAL_TIME ( 16, 56, 59.00000000000000000, #90 ) ;
#79 = PERSON ( 'UNSPECIFIED', 'UNSPECIFIED', 'UNSPECIFIED', ('UNSPECIFIED'), ('UNSPECIFIED'), ('UNSPECIFIED') ) ;
#80 = CC_DESIGN_SECURITY_CLASSIFICATION ( #71, ( #146 ) ) ;
#81 = CIRCLE ( 'NONE', #11, 6.350000000000001421 ) ;
#82 = CALENDAR_DATE ( 2021, 12, 4 ) ;
#83 = CARTESIAN_POINT ( 'NONE',  ( 9.705845441689406883, 23.84921129162025721, 45.50988071180626093 ) ) ;
#84 = AXIS2_PLACEMENT_3D ( 'NONE', #51, #140, #60 ) ;
#85 = DIRECTION ( 'NONE',  ( -1.000000000000000000, 0.000000000000000000, 0.000000000000000000 ) ) ;
#86 = CARTESIAN_POINT ( 'NONE',  ( 16.05584544168940653, 23.84921129162025721, 39.15988071180625951 ) ) ;
#87 = DIRECTION ( 'NONE',  ( 1.000000000000000000, 0.000000000000000000, 0.000000000000000000 ) ) ;
#88 = DATE_AND_TIME ( #97, #136 ) ;
#89 = APPROVAL_STATUS ( 'not_yet_approved' ) ;
#90 = COORDINATED_UNIVERSAL_TIME_OFFSET ( 5, 0, .BEHIND. ) ;
#91 = AXIS2_PLACEMENT_3D ( 'NONE', #2, #123, #103 ) ;
#92 = VERTEX_POINT ( 'NONE', #100 ) ;
#93 = PRODUCT ( 'Web Model 11734_17286', 'Web Model 11734_17286', '', ( #28 ) ) ;
#94 =( GEOMETRIC_REPRESENTATION_CONTEXT ( 3 ) GLOBAL_UNCERTAINTY_ASSIGNED_CONTEXT ( ( #53 ) ) GLOBAL_UNIT_ASSIGNED_CONTEXT ( ( #33, #5, #148 ) ) REPRESENTATION_CONTEXT ( 'NONE', 'WORKASPACE' ) );
#95 = PERSON_AND_ORGANIZATION ( #79, #154 ) ;
#96 = CC_DESIGN_APPROVAL ( #59, ( #42 ) ) ;
#97 = CALENDAR_DATE ( 2021, 12, 4 ) ;
#98 = AXIS2_PLACEMENT_3D ( 'NONE', #43, #175, #161 ) ;
#99 = DIRECTION ( 'NONE',  ( 0.000000000000000000, 0.000000000000000000, 1.000000000000000000 ) ) ;
#100 = CARTESIAN_POINT ( 'NONE',  ( 9.705845441689406883, 23.84921129162025721, 39.15988071180625951 ) ) ;
#101 = DIRECTION ( 'NONE',  ( 1.000000000000000000, 0.000000000000000000, 0.000000000000000000 ) ) ;
#102 = PLANE ( 'NONE',  #91 ) ;
#103 = DIRECTION ( 'NONE',  ( 1.000000000000000000, 0.000000000000000000, -0.000000000000000000 ) ) ;
#104 = APPROVAL_DATE_TIME ( #1, #49 ) ;
#105 = PERSON_AND_ORGANIZATION_ROLE ( 'design_owner' ) ;
#106 = COORDINATED_UNIVERSAL_TIME_OFFSET ( 5, 0, .BEHIND. ) ;
#107 = CYLINDRICAL_SURFACE ( 'NONE', #74, 6.349999999999999645 ) ;
#108 = SECURITY_CLASSIFICATION_LEVEL ( 'unclassified' ) ;
#109 = APPLICATION_PROTOCOL_DEFINITION ( 'international standard', 'config_control_design', 1994, #61 ) ;
#110 = ORIENTED_EDGE ( 'NONE', *, *, #115, .T. ) ;
#111 = PERSON_AND_ORGANIZATION ( #79, #154 ) ;
#112 = ORIENTED_EDGE ( 'NONE', *, *, #115, .F. ) ;
#113 = CC_DESIGN_APPROVAL ( #131, ( #71 ) ) ;
#114 = DESIGN_CONTEXT ( 'detailed design', #61, 'design' ) ;
#115 = EDGE_CURVE ( 'NONE', #116, #62, #81, .T. ) ;
#116 = VERTEX_POINT ( 'NONE', #83 ) ;
#117 = CARTESIAN_POINT ( 'NONE',  ( 22.40584544168940795, 23.84921129162025721, 45.50988071180626093 ) ) ;
#118 = CARTESIAN_POINT ( 'NONE',  ( 9.705845441689406883, 23.84921129162025721, 45.50988071180626093 ) ) ;
#119 = APPROVAL_ROLE ( '' ) ;
#120 = ADVANCED_FACE ( 'NONE', ( #20 ), #107, .T. ) ;
#121 = ORIENTED_EDGE ( 'NONE', *, *, #31, .F. ) ;
#122 = APPROVAL_PERSON_ORGANIZATION ( #95, #131, #4 ) ;
#123 = DIRECTION ( 'NONE',  ( 0.000000000000000000, 0.000000000000000000, 1.000000000000000000 ) ) ;
#124 = PLANE ( 'NONE',  #26 ) ;
#125 = EDGE_CURVE ( 'NONE', #62, #116, #46, .T. ) ;
#126 = DATE_TIME_ROLE ( 'creation_date' ) ;
#127 = APPROVAL_STATUS ( 'not_yet_approved' ) ;
#128 = PERSON_AND_ORGANIZATION_ROLE ( 'classification_officer' ) ;
#129 = DATE_AND_TIME ( #55, #78 ) ;
#130 = CALENDAR_DATE ( 2021, 12, 4 ) ;
#131 = APPROVAL ( #89, 'UNSPECIFIED' ) ;
#132 = ORIENTED_EDGE ( 'NONE', *, *, #155, .F. ) ;
#133 = APPROVAL_PERSON_ORGANIZATION ( #111, #49, #119 ) ;
#134 = ADVANCED_BREP_SHAPE_REPRESENTATION ( 'Web Model 11734_17286', ( #169, #142 ), #94 ) ;
#135 = APPROVAL_PERSON_ORGANIZATION ( #171, #59, #13 ) ;
#136 = LOCAL_TIME ( 16, 56, 59.00000000000000000, #106 ) ;
#137 = PRODUCT_RELATED_PRODUCT_CATEGORY ( 'detail', '', ( #93 ) ) ;
#138 = CARTESIAN_POINT ( 'NONE',  ( 22.40584544168940795, 23.84921129162025721, 39.15988071180625951 ) ) ;
#139 = CIRCLE ( 'NONE', #84, 6.350000000000001421 ) ;
#140 = DIRECTION ( 'NONE',  ( 0.000000000000000000, 0.000000000000000000, 1.000000000000000000 ) ) ;
#141 = CYLINDRICAL_SURFACE ( 'NONE', #37, 6.349999999999999645 ) ;
#142 = AXIS2_PLACEMENT_3D ( 'NONE', #57, #167, #87 ) ;
#143 = VERTEX_POINT ( 'NONE', #138 ) ;
#144 = CC_DESIGN_PERSON_AND_ORGANIZATION_ASSIGNMENT ( #50, #151, ( #146 ) ) ;
#145 = CARTESIAN_POINT ( 'NONE',  ( 16.05584544168940653, 23.84921129162025721, 45.50988071180626093 ) ) ;
#146 = PRODUCT_DEFINITION_FORMATION_WITH_SPECIFIED_SOURCE ( 'ANY', '', #93, .NOT_KNOWN. ) ;
#147 = FACE_OUTER_BOUND ( 'NONE', #162, .T. ) ;
#148 =( NAMED_UNIT ( * ) SI_UNIT ( $, .STERADIAN. ) SOLID_ANGLE_UNIT ( ) );
#149 = PERSON_AND_ORGANIZATION_ROLE ( 'design_supplier' ) ;
#150 = DATE_AND_TIME ( #38, #73 ) ;
#151 = PERSON_AND_ORGANIZATION_ROLE ( 'creator' ) ;
#152 = ORIENTED_EDGE ( 'NONE', *, *, #164, .F. ) ;
#153 = ADVANCED_FACE ( 'NONE', ( #6 ), #141, .T. ) ;
#154 = ORGANIZATION ( 'UNSPECIFIED', 'UNSPECIFIED', '' ) ;
#155 = EDGE_CURVE ( 'NONE', #143, #92, #139, .T. ) ;
#156 = ORIENTED_EDGE ( 'NONE', *, *, #158, .T. ) ;
#157 = CC_DESIGN_PERSON_AND_ORGANIZATION_ASSIGNMENT ( #40, #128, ( #71 ) ) ;
#158 = EDGE_CURVE ( 'NONE', #116, #92, #36, .T. ) ;
#159 = CARTESIAN_POINT ( 'NONE',  ( 16.05584544168940653, 23.84921129162025721, 45.50988071180626093 ) ) ;
#160 = PRODUCT_DEFINITION_SHAPE ( 'NONE', 'NONE',  #42 ) ;
#161 = DIRECTION ( 'NONE',  ( 1.000000000000000000, 0.000000000000000000, 0.000000000000000000 ) ) ;
#162 = EDGE_LOOP ( 'NONE', ( #121, #132 ) ) ;
#163 = DIRECTION ( 'NONE',  ( 1.000000000000000000, 0.000000000000000000, -0.000000000000000000 ) ) ;
#164 = EDGE_CURVE ( 'NONE', #62, #143, #68, .T. ) ;
#165 = DIRECTION ( 'NONE',  ( -1.000000000000000000, 0.000000000000000000, 0.000000000000000000 ) ) ;
#166 = LOCAL_TIME ( 16, 56, 59.00000000000000000, #19 ) ;
#167 = DIRECTION ( 'NONE',  ( 0.000000000000000000, 0.000000000000000000, 1.000000000000000000 ) ) ;
#168 = APPLICATION_PROTOCOL_DEFINITION ( 'international standard', 'config_control_design', 1994, #63 ) ;
#169 = MANIFOLD_SOLID_BREP ( '11757-1-solid1', #39 ) ;
#170 = EDGE_LOOP ( 'NONE', ( #152, #112, #156, #14 ) ) ;
#171 = PERSON_AND_ORGANIZATION ( #79, #154 ) ;
#172 = FACE_OUTER_BOUND ( 'NONE', #69, .T. ) ;
#173 = VECTOR ( 'NONE', #3, 1000.000000000000000 ) ;
#174 = ORIENTED_EDGE ( 'NONE', *, *, #125, .T. ) ;
#175 = DIRECTION ( 'NONE',  ( 0.000000000000000000, 0.000000000000000000, 1.000000000000000000 ) ) ;
ENDSEC;
END-ISO-10303-21;
