ISO-10303-21;
HEADER;
FILE_DESCRIPTION (( 'STEP AP203' ),
    '1' );
FILE_NAME ('Web Model 32269_46694.step',
    '2020-01-31T18:53:04',
    ( '' ),
    ( '' ),
    'SwSTEP 2.0',
    'SolidWorks 2018',
    '' );
FILE_SCHEMA (( 'CONFIG_CONTROL_DESIGN' ));
ENDSEC;

DATA;
#1 = COORDINATED_UNIVERSAL_TIME_OFFSET ( 5, 0, .BEHIND. ) ;
#2 = FACE_OUTER_BOUND ( 'NONE', #82, .T. ) ;
#3 = APPROVAL_ROLE ( '' ) ;
#4 = PRODUCT_DEFINITION_FORMATION_WITH_SPECIFIED_SOURCE ( 'ANY', '', #220, .NOT_KNOWN. ) ;
#5 = EDGE_LOOP ( 'NONE', ( #127, #216, #21, #106 ) ) ;
#6 = LINE ( 'NONE', #111, #183 ) ;
#7 = PERSON_AND_ORGANIZATION ( #171, #104 ) ;
#8 = CC_DESIGN_APPROVAL ( #42, ( #36 ) ) ;
#9 = DIRECTION ( 'NONE',  ( -1.000000000000000000, -0.0000000000000000000, -0.0000000000000000000 ) ) ;
#10 = ORIENTED_EDGE ( 'NONE', *, *, #175, .T. ) ;
#11 = ADVANCED_FACE ( 'NONE', ( #17 ), #192, .F. ) ;
#12 = DIRECTION ( 'NONE',  ( -0.0000000000000000000, 0.0000000000000000000, 1.000000000000000000 ) ) ;
#13 = DATE_AND_TIME ( #73, #188 ) ;
#14 = LINE ( 'NONE', #98, #234 ) ;
#15 = PERSON_AND_ORGANIZATION_ROLE ( 'design_owner' ) ;
#16 = DIRECTION ( 'NONE',  ( 1.000000000000000000, 0.0000000000000000000, 0.0000000000000000000 ) ) ;
#17 = FACE_OUTER_BOUND ( 'NONE', #207, .T. ) ;
#18 = DIRECTION ( 'NONE',  ( 0.0000000000000000000, 0.0000000000000000000, 1.000000000000000000 ) ) ;
#19 = VERTEX_POINT ( 'NONE', #210 ) ;
#20 = CC_DESIGN_PERSON_AND_ORGANIZATION_ASSIGNMENT ( #64, #162, ( #206 ) ) ;
#21 = ORIENTED_EDGE ( 'NONE', *, *, #172, .F. ) ;
#22 = APPROVAL ( #110, 'UNSPECIFIED' ) ;
#23 = VERTEX_POINT ( 'NONE', #193 ) ;
#24 = VERTEX_POINT ( 'NONE', #107 ) ;
#25 = DIRECTION ( 'NONE',  ( 0.0000000000000000000, -0.0000000000000000000, -1.000000000000000000 ) ) ;
#26 = DIRECTION ( 'NONE',  ( -1.000000000000000000, -1.284980352575412946E-16, 0.0000000000000000000 ) ) ;
#27 = DIRECTION ( 'NONE',  ( 1.000000000000000000, 0.0000000000000000000, 0.0000000000000000000 ) ) ;
#28 = ORIENTED_EDGE ( 'NONE', *, *, #166, .T. ) ;
#29 = COORDINATED_UNIVERSAL_TIME_OFFSET ( 5, 0, .BEHIND. ) ;
#30 = CARTESIAN_POINT ( 'NONE',  ( -9.999999999999998224, -13.50000000000000178, 0.5000000000000000000 ) ) ;
#31 = APPLICATION_PROTOCOL_DEFINITION ( 'international standard', 'config_control_design', 1994, #145 ) ;
#32 = AXIS2_PLACEMENT_3D ( 'NONE', #164, #56, #16 ) ;
#33 = DESIGN_CONTEXT ( 'detailed design', #145, 'design' ) ;
#34 = LINE ( 'NONE', #49, #237 ) ;
#35 =( NAMED_UNIT ( * ) SI_UNIT ( $, .STERADIAN. ) SOLID_ANGLE_UNIT ( ) );
#36 = SECURITY_CLASSIFICATION ( '', '', #84 ) ;
#37 = PLANE ( 'NONE',  #32 ) ;
#38 = ORIENTED_EDGE ( 'NONE', *, *, #69, .F. ) ;
#39 = APPROVAL_DATE_TIME ( #124, #155 ) ;
#40 = LINE ( 'NONE', #157, #199 ) ;
#41 = ORIENTED_EDGE ( 'NONE', *, *, #83, .F. ) ;
#42 = APPROVAL ( #134, 'UNSPECIFIED' ) ;
#43 = VECTOR ( 'NONE', #75, 1000.000000000000000 ) ;
#44 = PERSON_AND_ORGANIZATION ( #171, #104 ) ;
#45 = CARTESIAN_POINT ( 'NONE',  ( 9.999999999999998224, 13.49999999999999822, -0.5000000000000000000 ) ) ;
#46 = CARTESIAN_POINT ( 'NONE',  ( -10.00000000000000178, 13.49999999999999822, -0.5000000000000000000 ) ) ;
#47 = CLOSED_SHELL ( 'NONE', ( #137, #11, #191, #170, #224, #87 ) ) ;
#48 = DIRECTION ( 'NONE',  ( 0.0000000000000000000, -1.000000000000000000, 0.0000000000000000000 ) ) ;
#49 = CARTESIAN_POINT ( 'NONE',  ( -9.999999999999998224, -13.50000000000000178, 0.5000000000000000000 ) ) ;
#50 = EDGE_CURVE ( 'NONE', #133, #23, #96, .T. ) ;
#51 = CARTESIAN_POINT ( 'NONE',  ( -10.00000000000000178, 13.49999999999999822, 0.5000000000000000000 ) ) ;
#52 = PERSON_AND_ORGANIZATION ( #171, #104 ) ;
#53 = LINE ( 'NONE', #46, #204 ) ;
#54 = PLANE ( 'NONE',  #81 ) ;
#55 = PRODUCT_DEFINITION_SHAPE ( 'NONE', 'NONE',  #206 ) ;
#56 = DIRECTION ( 'NONE',  ( -0.0000000000000000000, 0.0000000000000000000, 1.000000000000000000 ) ) ;
#57 = VECTOR ( 'NONE', #89, 1000.000000000000000 ) ;
#58 = DIRECTION ( 'NONE',  ( -1.284980352575412946E-16, 1.000000000000000000, 0.0000000000000000000 ) ) ;
#59 = VECTOR ( 'NONE', #126, 1000.000000000000000 ) ;
#60 = PERSON_AND_ORGANIZATION ( #171, #104 ) ;
#61 = MANIFOLD_SOLID_BREP ( 'Boss-Extrude1', #47 ) ;
#62 = LOCAL_TIME ( 13, 53, 4.000000000000000000, #121 ) ;
#63 = AXIS2_PLACEMENT_3D ( 'NONE', #142, #26, #225 ) ;
#64 = PERSON_AND_ORGANIZATION ( #171, #104 ) ;
#65 = LINE ( 'NONE', #123, #203 ) ;
#66 = ORIENTED_EDGE ( 'NONE', *, *, #143, .F. ) ;
#67 = DATE_AND_TIME ( #136, #62 ) ;
#68 = CARTESIAN_POINT ( 'NONE',  ( 0.0000000000000000000, 0.0000000000000000000, -0.5000000000000000000 ) ) ;
#69 = EDGE_CURVE ( 'NONE', #71, #24, #228, .T. ) ;
#70 = CARTESIAN_POINT ( 'NONE',  ( 10.00000000000000178, -13.50000000000000178, -0.5000000000000000000 ) ) ;
#71 = VERTEX_POINT ( 'NONE', #70 ) ;
#72 = APPROVAL_DATE_TIME ( #67, #42 ) ;
#73 = CALENDAR_DATE ( 2020, 31, 1 ) ;
#74 = PLANE ( 'NONE',  #226 ) ;
#75 = DIRECTION ( 'NONE',  ( 1.284980352575412699E-16, -1.000000000000000000, 0.0000000000000000000 ) ) ;
#76 = CARTESIAN_POINT ( 'NONE',  ( -10.00000000000000178, 13.49999999999999822, 0.5000000000000000000 ) ) ;
#77 = AXIS2_PLACEMENT_3D ( 'NONE', #112, #161, #198 ) ;
#78 = ORIENTED_EDGE ( 'NONE', *, *, #152, .T. ) ;
#79 = VERTEX_POINT ( 'NONE', #90 ) ;
#80 = APPROVAL_PERSON_ORGANIZATION ( #44, #42, #3 ) ;
#81 = AXIS2_PLACEMENT_3D ( 'NONE', #150, #128, #58 ) ;
#82 = EDGE_LOOP ( 'NONE', ( #185, #140, #28, #120 ) ) ;
#83 = EDGE_CURVE ( 'NONE', #79, #71, #40, .T. ) ;
#84 = SECURITY_CLASSIFICATION_LEVEL ( 'unclassified' ) ;
#85 = EDGE_LOOP ( 'NONE', ( #91, #41, #205, #100 ) ) ;
#86 = COORDINATED_UNIVERSAL_TIME_OFFSET ( 5, 0, .BEHIND. ) ;
#87 = ADVANCED_FACE ( 'NONE', ( #169 ), #74, .F. ) ;
#88 = VECTOR ( 'NONE', #158, 1000.000000000000000 ) ;
#89 = DIRECTION ( 'NONE',  ( -0.0000000000000000000, -0.0000000000000000000, -1.000000000000000000 ) ) ;
#90 = CARTESIAN_POINT ( 'NONE',  ( 10.00000000000000178, -13.50000000000000178, 0.5000000000000000000 ) ) ;
#91 = ORIENTED_EDGE ( 'NONE', *, *, #113, .T. ) ;
#92 = LOCAL_TIME ( 13, 53, 4.000000000000000000, #132 ) ;
#93 = ADVANCED_BREP_SHAPE_REPRESENTATION ( 'Web Model 32269_46694', ( #61, #209 ), #231 ) ;
#94 =( NAMED_UNIT ( * ) PLANE_ANGLE_UNIT ( ) SI_UNIT ( $, .RADIAN. ) );
#95 = APPROVAL_PERSON_ORGANIZATION ( #141, #155, #215 ) ;
#96 = LINE ( 'NONE', #51, #57 ) ;
#97 = APPROVAL_STATUS ( 'not_yet_approved' ) ;
#98 = CARTESIAN_POINT ( 'NONE',  ( 9.999999999999998224, 13.49999999999999822, 0.5000000000000000000 ) ) ;
#99 = EDGE_CURVE ( 'NONE', #130, #178, #34, .T. ) ;
#100 = ORIENTED_EDGE ( 'NONE', *, *, #99, .T. ) ;
#101 = DATE_AND_TIME ( #213, #189 ) ;
#102 = AXIS2_PLACEMENT_3D ( 'NONE', #194, #48, #25 ) ;
#103 = EDGE_CURVE ( 'NONE', #130, #79, #116, .T. ) ;
#104 = ORGANIZATION ( 'UNSPECIFIED', 'UNSPECIFIED', '' ) ;
#105 = DIRECTION ( 'NONE',  ( 1.000000000000000000, 0.0000000000000000000, 0.0000000000000000000 ) ) ;
#106 = ORIENTED_EDGE ( 'NONE', *, *, #83, .T. ) ;
#107 = CARTESIAN_POINT ( 'NONE',  ( 9.999999999999998224, 13.49999999999999822, -0.5000000000000000000 ) ) ;
#108 = CARTESIAN_POINT ( 'NONE',  ( -10.00000000000000178, 13.49999999999999822, 0.5000000000000000000 ) ) ;
#109 = FACE_OUTER_BOUND ( 'NONE', #85, .T. ) ;
#110 = APPROVAL_STATUS ( 'not_yet_approved' ) ;
#111 = CARTESIAN_POINT ( 'NONE',  ( -10.00000000000000178, 13.49999999999999822, -0.5000000000000000000 ) ) ;
#112 = CARTESIAN_POINT ( 'NONE',  ( -9.999999999999998224, -13.50000000000000178, 0.5000000000000000000 ) ) ;
#113 = EDGE_CURVE ( 'NONE', #178, #71, #65, .T. ) ;
#114 = ORIENTED_EDGE ( 'NONE', *, *, #182, .F. ) ;
#115 = PERSON_AND_ORGANIZATION ( #171, #104 ) ;
#116 = LINE ( 'NONE', #211, #218 ) ;
#117 = ORIENTED_EDGE ( 'NONE', *, *, #99, .F. ) ;
#118 = DATE_TIME_ROLE ( 'classification_date' ) ;
#119 = CC_DESIGN_APPROVAL ( #22, ( #206 ) ) ;
#120 = ORIENTED_EDGE ( 'NONE', *, *, #103, .T. ) ;
#121 = COORDINATED_UNIVERSAL_TIME_OFFSET ( 5, 0, .BEHIND. ) ;
#122 = DIRECTION ( 'NONE',  ( 1.000000000000000000, 0.0000000000000000000, 0.0000000000000000000 ) ) ;
#123 = CARTESIAN_POINT ( 'NONE',  ( -9.999999999999998224, -13.50000000000000178, -0.5000000000000000000 ) ) ;
#124 = DATE_AND_TIME ( #208, #92 ) ;
#125 = APPLICATION_PROTOCOL_DEFINITION ( 'international standard', 'config_control_design', 1994, #230 ) ;
#126 = DIRECTION ( 'NONE',  ( -0.0000000000000000000, -0.0000000000000000000, -1.000000000000000000 ) ) ;
#127 = ORIENTED_EDGE ( 'NONE', *, *, #69, .T. ) ;
#128 = DIRECTION ( 'NONE',  ( 1.000000000000000000, 1.284980352575412946E-16, -0.0000000000000000000 ) ) ;
#129 = DIRECTION ( 'NONE',  ( 1.284980352575412699E-16, -1.000000000000000000, 0.0000000000000000000 ) ) ;
#130 = VERTEX_POINT ( 'NONE', #30 ) ;
#131 = PERSON_AND_ORGANIZATION ( #171, #104 ) ;
#132 = COORDINATED_UNIVERSAL_TIME_OFFSET ( 5, 0, .BEHIND. ) ;
#133 = VERTEX_POINT ( 'NONE', #108 ) ;
#134 = APPROVAL_STATUS ( 'not_yet_approved' ) ;
#135 = ORIENTED_EDGE ( 'NONE', *, *, #152, .F. ) ;
#136 = CALENDAR_DATE ( 2020, 31, 1 ) ;
#137 = ADVANCED_FACE ( 'NONE', ( #159 ), #190, .F. ) ;
#138 = CC_DESIGN_PERSON_AND_ORGANIZATION_ASSIGNMENT ( #52, #15, ( #220 ) ) ;
#139 = FACE_OUTER_BOUND ( 'NONE', #167, .T. ) ;
#140 = ORIENTED_EDGE ( 'NONE', *, *, #143, .T. ) ;
#141 = PERSON_AND_ORGANIZATION ( #171, #104 ) ;
#142 = CARTESIAN_POINT ( 'NONE',  ( 9.999999999999998224, 13.49999999999999822, 0.5000000000000000000 ) ) ;
#143 = EDGE_CURVE ( 'NONE', #19, #133, #146, .T. ) ;
#144 = CARTESIAN_POINT ( 'NONE',  ( -10.00000000000000178, 13.49999999999999822, 0.5000000000000000000 ) ) ;
#145 = APPLICATION_CONTEXT ( 'configuration controlled 3d designs of mechanical parts and assemblies' ) ;
#146 = LINE ( 'NONE', #144, #233 ) ;
#147 = DATE_AND_TIME ( #168, #196 ) ;
#148 = MECHANICAL_CONTEXT ( 'NONE', #230, 'mechanical' ) ;
#149 =( LENGTH_UNIT ( ) NAMED_UNIT ( * ) SI_UNIT ( .MILLI., .METRE. ) );
#150 = CARTESIAN_POINT ( 'NONE',  ( -10.00000000000000178, 13.49999999999999822, 0.5000000000000000000 ) ) ;
#151 = PERSON_AND_ORGANIZATION_ROLE ( 'design_supplier' ) ;
#152 = EDGE_CURVE ( 'NONE', #24, #23, #53, .T. ) ;
#153 = APPROVAL_PERSON_ORGANIZATION ( #60, #22, #232 ) ;
#154 = ORIENTED_EDGE ( 'NONE', *, *, #166, .F. ) ;
#155 = APPROVAL ( #97, 'UNSPECIFIED' ) ;
#156 = LINE ( 'NONE', #76, #43 ) ;
#157 = CARTESIAN_POINT ( 'NONE',  ( 10.00000000000000178, -13.50000000000000178, 0.5000000000000000000 ) ) ;
#158 = DIRECTION ( 'NONE',  ( -1.284980352575412699E-16, 1.000000000000000000, -0.0000000000000000000 ) ) ;
#159 = FACE_OUTER_BOUND ( 'NONE', #5, .T. ) ;
#160 = CC_DESIGN_SECURITY_CLASSIFICATION ( #36, ( #4 ) ) ;
#161 = DIRECTION ( 'NONE',  ( 0.0000000000000000000, 1.000000000000000000, 0.0000000000000000000 ) ) ;
#162 = PERSON_AND_ORGANIZATION_ROLE ( 'creator' ) ;
#163 = ORIENTED_EDGE ( 'NONE', *, *, #50, .T. ) ;
#164 = CARTESIAN_POINT ( 'NONE',  ( 0.0000000000000000000, 0.0000000000000000000, 0.5000000000000000000 ) ) ;
#165 = DIRECTION ( 'NONE',  ( -1.284980352575412699E-16, 1.000000000000000000, -0.0000000000000000000 ) ) ;
#166 = EDGE_CURVE ( 'NONE', #133, #130, #156, .T. ) ;
#167 = EDGE_LOOP ( 'NONE', ( #181, #117, #154, #163 ) ) ;
#168 = CALENDAR_DATE ( 2020, 31, 1 ) ;
#169 = FACE_OUTER_BOUND ( 'NONE', #221, .T. ) ;
#170 = ADVANCED_FACE ( 'NONE', ( #109 ), #235, .F. ) ;
#171 = PERSON ( 'UNSPECIFIED', 'UNSPECIFIED', 'UNSPECIFIED', ('UNSPECIFIED'), ('UNSPECIFIED'), ('UNSPECIFIED') ) ;
#172 = EDGE_CURVE ( 'NONE', #79, #19, #14, .T. ) ;
#173 = UNCERTAINTY_MEASURE_WITH_UNIT (LENGTH_MEASURE( 1.000000000000000082E-05 ), #149, 'distance_accuracy_value', 'NONE');
#174 = ORIENTED_EDGE ( 'NONE', *, *, #50, .F. ) ;
#175 = EDGE_CURVE ( 'NONE', #19, #24, #195, .T. ) ;
#176 = SHAPE_DEFINITION_REPRESENTATION ( #55, #93 ) ;
#177 = CARTESIAN_POINT ( 'NONE',  ( -9.999999999999998224, -13.50000000000000178, -0.5000000000000000000 ) ) ;
#178 = VERTEX_POINT ( 'NONE', #177 ) ;
#179 = CARTESIAN_POINT ( 'NONE',  ( 9.999999999999998224, 13.49999999999999822, 0.5000000000000000000 ) ) ;
#180 = PRODUCT_RELATED_PRODUCT_CATEGORY ( 'detail', '', ( #220 ) ) ;
#181 = ORIENTED_EDGE ( 'NONE', *, *, #182, .T. ) ;
#182 = EDGE_CURVE ( 'NONE', #23, #178, #6, .T. ) ;
#183 = VECTOR ( 'NONE', #129, 1000.000000000000000 ) ;
#184 = APPROVAL_DATE_TIME ( #101, #22 ) ;
#185 = ORIENTED_EDGE ( 'NONE', *, *, #172, .T. ) ;
#186 = PERSON_AND_ORGANIZATION_ROLE ( 'creator' ) ;
#187 = CC_DESIGN_PERSON_AND_ORGANIZATION_ASSIGNMENT ( #131, #186, ( #4 ) ) ;
#188 = LOCAL_TIME ( 13, 53, 4.000000000000000000, #86 ) ;
#189 = LOCAL_TIME ( 13, 53, 4.000000000000000000, #1 ) ;
#190 = PLANE ( 'NONE',  #63 ) ;
#191 = ADVANCED_FACE ( 'NONE', ( #139 ), #54, .F. ) ;
#192 = PLANE ( 'NONE',  #102 ) ;
#193 = CARTESIAN_POINT ( 'NONE',  ( -10.00000000000000178, 13.49999999999999822, -0.5000000000000000000 ) ) ;
#194 = CARTESIAN_POINT ( 'NONE',  ( -10.00000000000000178, 13.49999999999999822, 0.5000000000000000000 ) ) ;
#195 = LINE ( 'NONE', #179, #59 ) ;
#196 = LOCAL_TIME ( 13, 53, 4.000000000000000000, #29 ) ;
#197 = DATE_TIME_ROLE ( 'creation_date' ) ;
#198 = DIRECTION ( 'NONE',  ( 0.0000000000000000000, -0.0000000000000000000, 1.000000000000000000 ) ) ;
#199 = VECTOR ( 'NONE', #229, 1000.000000000000000 ) ;
#200 = DIRECTION ( 'NONE',  ( 1.000000000000000000, 0.0000000000000000000, 0.0000000000000000000 ) ) ;
#201 = PERSON_AND_ORGANIZATION_ROLE ( 'classification_officer' ) ;
#202 = CC_DESIGN_PERSON_AND_ORGANIZATION_ASSIGNMENT ( #115, #151, ( #4 ) ) ;
#203 = VECTOR ( 'NONE', #122, 1000.000000000000000 ) ;
#204 = VECTOR ( 'NONE', #236, 1000.000000000000000 ) ;
#205 = ORIENTED_EDGE ( 'NONE', *, *, #103, .F. ) ;
#206 = PRODUCT_DEFINITION ( 'UNKNOWN', '', #4, #33 ) ;
#207 = EDGE_LOOP ( 'NONE', ( #78, #174, #66, #10 ) ) ;
#208 = CALENDAR_DATE ( 2020, 31, 1 ) ;
#209 = AXIS2_PLACEMENT_3D ( 'NONE', #214, #18, #200 ) ;
#210 = CARTESIAN_POINT ( 'NONE',  ( 9.999999999999998224, 13.49999999999999822, 0.5000000000000000000 ) ) ;
#211 = CARTESIAN_POINT ( 'NONE',  ( -9.999999999999998224, -13.50000000000000178, 0.5000000000000000000 ) ) ;
#212 = CC_DESIGN_PERSON_AND_ORGANIZATION_ASSIGNMENT ( #7, #201, ( #36 ) ) ;
#213 = CALENDAR_DATE ( 2020, 31, 1 ) ;
#214 = CARTESIAN_POINT ( 'NONE',  ( 0.0000000000000000000, 0.0000000000000000000, 0.0000000000000000000 ) ) ;
#215 = APPROVAL_ROLE ( '' ) ;
#216 = ORIENTED_EDGE ( 'NONE', *, *, #175, .F. ) ;
#217 = CC_DESIGN_DATE_AND_TIME_ASSIGNMENT ( #13, #197, ( #206 ) ) ;
#218 = VECTOR ( 'NONE', #105, 1000.000000000000000 ) ;
#219 = CC_DESIGN_APPROVAL ( #155, ( #4 ) ) ;
#220 = PRODUCT ( 'Web Model 32269_46694', 'Web Model 32269_46694', '', ( #148 ) ) ;
#221 = EDGE_LOOP ( 'NONE', ( #38, #222, #114, #135 ) ) ;
#222 = ORIENTED_EDGE ( 'NONE', *, *, #113, .F. ) ;
#223 = CC_DESIGN_DATE_AND_TIME_ASSIGNMENT ( #147, #118, ( #36 ) ) ;
#224 = ADVANCED_FACE ( 'NONE', ( #2 ), #37, .T. ) ;
#225 = DIRECTION ( 'NONE',  ( 1.284980352575412946E-16, -1.000000000000000000, 0.0000000000000000000 ) ) ;
#226 = AXIS2_PLACEMENT_3D ( 'NONE', #68, #12, #27 ) ;
#227 = DIRECTION ( 'NONE',  ( -0.0000000000000000000, -0.0000000000000000000, -1.000000000000000000 ) ) ;
#228 = LINE ( 'NONE', #45, #88 ) ;
#229 = DIRECTION ( 'NONE',  ( -0.0000000000000000000, -0.0000000000000000000, -1.000000000000000000 ) ) ;
#230 = APPLICATION_CONTEXT ( 'configuration controlled 3d designs of mechanical parts and assemblies' ) ;
#231 =( GEOMETRIC_REPRESENTATION_CONTEXT ( 3 ) GLOBAL_UNCERTAINTY_ASSIGNED_CONTEXT ( ( #173 ) ) GLOBAL_UNIT_ASSIGNED_CONTEXT ( ( #149, #94, #35 ) ) REPRESENTATION_CONTEXT ( 'NONE', 'WORKASPACE' ) );
#232 = APPROVAL_ROLE ( '' ) ;
#233 = VECTOR ( 'NONE', #9, 1000.000000000000000 ) ;
#234 = VECTOR ( 'NONE', #165, 1000.000000000000000 ) ;
#235 = PLANE ( 'NONE',  #77 ) ;
#236 = DIRECTION ( 'NONE',  ( -1.000000000000000000, -0.0000000000000000000, -0.0000000000000000000 ) ) ;
#237 = VECTOR ( 'NONE', #227, 1000.000000000000000 ) ;
ENDSEC;
END-ISO-10303-21;
