ISO-10303-21;
HEADER;
FILE_DESCRIPTION (( 'STEP AP203' ),
    '1' );
FILE_NAME ('25012-E0W.STEP',
    '2012-09-28T16:21:45',
    ( 'Admin' ),
    ( 'Thorlabs, Inc.' ),
    'SwSTEP 2.0',
    'SolidWorks 2011',
    '' );
FILE_SCHEMA (( 'CONFIG_CONTROL_DESIGN' ));
ENDSEC;

DATA;
#1 = AXIS2_PLACEMENT_3D ( 'NONE', #61, #17, #327 ) ;
#2 = LOCAL_TIME ( 12, 21, 45.00000000000000000, #3 ) ;
#3 = COORDINATED_UNIVERSAL_TIME_OFFSET ( 5, 0, .BEHIND. ) ;
#4 = APPROVAL_PERSON_ORGANIZATION ( #8, #6, #5 ) ;
#5 = APPROVAL_ROLE ( '' ) ;
#6 = APPROVAL ( #7, 'UNSPECIFIED' ) ;
#7 = APPROVAL_STATUS ( 'not_yet_approved' ) ;
#8 = PERSON_AND_ORGANIZATION ( #46, #35 ) ;
#9 = PRODUCT_DEFINITION_FORMATION_WITH_SPECIFIED_SOURCE ( 'ANY', '', #47, .NOT_KNOWN. ) ;
#10 = CC_DESIGN_DATE_AND_TIME_ASSIGNMENT ( #12, #11, ( #40 ) ) ;
#11 = DATE_TIME_ROLE ( 'creation_date' ) ;
#12 = DATE_AND_TIME ( #13, #14 ) ;
#13 = CALENDAR_DATE ( 2012, 28, 9 ) ;
#14 = LOCAL_TIME ( 12, 21, 45.00000000000000000, #15 ) ;
#15 = COORDINATED_UNIVERSAL_TIME_OFFSET ( 5, 0, .BEHIND. ) ;
#16 = APPLICATION_CONTEXT ( 'configuration controlled 3d designs of mechanical parts and assemblies' ) ;
#17 = DIRECTION ( 'NONE',  ( 0.0000000000000000000, 0.0000000000000000000, 1.000000000000000000 ) ) ;
#18 = PRODUCT_DEFINITION_SHAPE ( 'NONE', 'NONE',  #40 ) ;
#19 = PRODUCT_RELATED_PRODUCT_CATEGORY ( 'detail', '', ( #47 ) ) ;
#20 = CC_DESIGN_SECURITY_CLASSIFICATION ( #69, ( #9 ) ) ;
#21 = CC_DESIGN_APPROVAL ( #29, ( #69 ) ) ;
#22 = APPROVAL_DATE_TIME ( #23, #29 ) ;
#23 = DATE_AND_TIME ( #24, #25 ) ;
#24 = CALENDAR_DATE ( 2012, 28, 9 ) ;
#25 = LOCAL_TIME ( 12, 21, 45.00000000000000000, #26 ) ;
#26 = COORDINATED_UNIVERSAL_TIME_OFFSET ( 5, 0, .BEHIND. ) ;
#27 = APPROVAL_PERSON_ORGANIZATION ( #31, #29, #28 ) ;
#28 = APPROVAL_ROLE ( '' ) ;
#29 = APPROVAL ( #30, 'UNSPECIFIED' ) ;
#30 = APPROVAL_STATUS ( 'not_yet_approved' ) ;
#31 = PERSON_AND_ORGANIZATION ( #46, #35 ) ;
#32 = CC_DESIGN_DATE_AND_TIME_ASSIGNMENT ( #62, #33, ( #69 ) ) ;
#33 = DATE_TIME_ROLE ( 'classification_date' ) ;
#34 = PERSON_AND_ORGANIZATION ( #46, #35 ) ;
#35 = ORGANIZATION ( 'UNSPECIFIED', 'UNSPECIFIED', '' ) ;
#36 = SHAPE_DEFINITION_REPRESENTATION ( #18, #147 ) ;
#37 = APPROVAL ( #38, 'UNSPECIFIED' ) ;
#38 = APPROVAL_STATUS ( 'not_yet_approved' ) ;
#39 = PERSON_AND_ORGANIZATION ( #46, #35 ) ;
#40 = PRODUCT_DEFINITION ( 'UNKNOWN', '', #9, #41 ) ;
#41 = DESIGN_CONTEXT ( 'detailed design', #43, 'design' ) ;
#42 = APPLICATION_PROTOCOL_DEFINITION ( 'international standard', 'config_control_design', 1994, #43 ) ;
#43 = APPLICATION_CONTEXT ( 'configuration controlled 3d designs of mechanical parts and assemblies' ) ;
#44 = CC_DESIGN_PERSON_AND_ORGANIZATION_ASSIGNMENT ( #34, #45, ( #47 ) ) ;
#45 = PERSON_AND_ORGANIZATION_ROLE ( 'design_owner' ) ;
#46 = PERSON ( 'UNSPECIFIED', 'UNSPECIFIED', 'UNSPECIFIED', ('UNSPECIFIED'), ('UNSPECIFIED'), ('UNSPECIFIED') ) ;
#47 = PRODUCT ( '25012-E0W', '25012-E0W', '', ( #48 ) ) ;
#48 = MECHANICAL_CONTEXT ( 'NONE', #16, 'mechanical' ) ;
#49 = APPLICATION_PROTOCOL_DEFINITION ( 'international standard', 'config_control_design', 1994, #16 ) ;
#50 = CC_DESIGN_PERSON_AND_ORGANIZATION_ASSIGNMENT ( #52, #51, ( #40 ) ) ;
#51 = PERSON_AND_ORGANIZATION_ROLE ( 'creator' ) ;
#52 = PERSON_AND_ORGANIZATION ( #46, #35 ) ;
#53 = CC_DESIGN_APPROVAL ( #37, ( #40 ) ) ;
#54 = APPROVAL_DATE_TIME ( #55, #37 ) ;
#55 = DATE_AND_TIME ( #56, #57 ) ;
#56 = CALENDAR_DATE ( 2012, 28, 9 ) ;
#57 = LOCAL_TIME ( 12, 21, 45.00000000000000000, #58 ) ;
#58 = COORDINATED_UNIVERSAL_TIME_OFFSET ( 5, 0, .BEHIND. ) ;
#59 = APPROVAL_PERSON_ORGANIZATION ( #39, #37, #60 ) ;
#60 = APPROVAL_ROLE ( '' ) ;
#61 = CARTESIAN_POINT ( 'NONE',  ( 0.0000000000000000000, 0.0000000000000000000, 0.0000000000000000000 ) ) ;
#62 = DATE_AND_TIME ( #63, #64 ) ;
#63 = CALENDAR_DATE ( 2012, 28, 9 ) ;
#64 = LOCAL_TIME ( 12, 21, 45.00000000000000000, #65 ) ;
#65 = COORDINATED_UNIVERSAL_TIME_OFFSET ( 5, 0, .BEHIND. ) ;
#66 = CC_DESIGN_PERSON_AND_ORGANIZATION_ASSIGNMENT ( #68, #67, ( #69 ) ) ;
#67 = PERSON_AND_ORGANIZATION_ROLE ( 'classification_officer' ) ;
#68 = PERSON_AND_ORGANIZATION ( #46, #35 ) ;
#69 = SECURITY_CLASSIFICATION ( '', '', #70 ) ;
#70 = SECURITY_CLASSIFICATION_LEVEL ( 'unclassified' ) ;
#71 = CC_DESIGN_PERSON_AND_ORGANIZATION_ASSIGNMENT ( #73, #72, ( #9 ) ) ;
#72 = PERSON_AND_ORGANIZATION_ROLE ( 'design_supplier' ) ;
#73 = PERSON_AND_ORGANIZATION ( #46, #35 ) ;
#74 = CC_DESIGN_PERSON_AND_ORGANIZATION_ASSIGNMENT ( #76, #75, ( #9 ) ) ;
#75 = PERSON_AND_ORGANIZATION_ROLE ( 'creator' ) ;
#76 = PERSON_AND_ORGANIZATION ( #46, #35 ) ;
#77 = CC_DESIGN_APPROVAL ( #6, ( #9 ) ) ;
#78 = APPROVAL_DATE_TIME ( #79, #6 ) ;
#79 = DATE_AND_TIME ( #80, #2 ) ;
#80 = CALENDAR_DATE ( 2012, 28, 9 ) ;
#81 = VERTEX_POINT ( 'NONE', #202 ) ;
#82 = EDGE_CURVE ( 'NONE', #166, #153, #183, .T. ) ;
#83 = ORIENTED_EDGE ( 'NONE', *, *, #152, .F. ) ;
#84 = ADVANCED_FACE ( 'NONE', ( #186 ), #184, .T. ) ;
#85 = ORIENTED_EDGE ( 'NONE', *, *, #89, .T. ) ;
#86 = ORIENTED_EDGE ( 'NONE', *, *, #82, .F. ) ;
#87 = EDGE_CURVE ( 'NONE', #138, #166, #285, .T. ) ;
#88 = ORIENTED_EDGE ( 'NONE', *, *, #101, .F. ) ;
#89 = EDGE_CURVE ( 'NONE', #160, #81, #237, .T. ) ;
#90 = EDGE_LOOP ( 'NONE', ( #154, #85, #83, #86 ) ) ;
#91 = ORIENTED_EDGE ( 'NONE', *, *, #103, .F. ) ;
#92 = ORIENTED_EDGE ( 'NONE', *, *, #94, .T. ) ;
#93 = VERTEX_POINT ( 'NONE', #233 ) ;
#94 = EDGE_CURVE ( 'NONE', #95, #153, #239, .T. ) ;
#95 = VERTEX_POINT ( 'NONE', #180 ) ;
#96 = ORIENTED_EDGE ( 'NONE', *, *, #103, .T. ) ;
#97 = ORIENTED_EDGE ( 'NONE', *, *, #152, .T. ) ;
#98 = ORIENTED_EDGE ( 'NONE', *, *, #161, .F. ) ;
#99 = EDGE_LOOP ( 'NONE', ( #106, #96, #107 ) ) ;
#100 = ADVANCED_FACE ( 'NONE', ( #178 ), #293, .T. ) ;
#101 = EDGE_CURVE ( 'NONE', #95, #93, #234, .T. ) ;
#102 = VERTEX_POINT ( 'NONE', #203 ) ;
#103 = EDGE_CURVE ( 'NONE', #93, #102, #204, .T. ) ;
#104 = ORIENTED_EDGE ( 'NONE', *, *, #167, .T. ) ;
#105 = ORIENTED_EDGE ( 'NONE', *, *, #109, .F. ) ;
#106 = ORIENTED_EDGE ( 'NONE', *, *, #101, .T. ) ;
#107 = ORIENTED_EDGE ( 'NONE', *, *, #111, .F. ) ;
#108 = EDGE_LOOP ( 'NONE', ( #91, #115, #129 ) ) ;
#109 = EDGE_CURVE ( 'NONE', #93, #81, #309, .T. ) ;
#110 = EDGE_LOOP ( 'NONE', ( #121, #132, #168, #119 ) ) ;
#111 = EDGE_CURVE ( 'NONE', #95, #102, #179, .T. ) ;
#112 = ORIENTED_EDGE ( 'NONE', *, *, #87, .T. ) ;
#113 = ORIENTED_EDGE ( 'NONE', *, *, #146, .T. ) ;
#114 = ORIENTED_EDGE ( 'NONE', *, *, #130, .T. ) ;
#115 = ORIENTED_EDGE ( 'NONE', *, *, #127, .T. ) ;
#116 = EDGE_CURVE ( 'NONE', #81, #153, #294, .T. ) ;
#117 = EDGE_LOOP ( 'NONE', ( #128, #113, #123 ) ) ;
#118 = ORIENTED_EDGE ( 'NONE', *, *, #82, .T. ) ;
#119 = ORIENTED_EDGE ( 'NONE', *, *, #116, .T. ) ;
#120 = ORIENTED_EDGE ( 'NONE', *, *, #116, .F. ) ;
#121 = ORIENTED_EDGE ( 'NONE', *, *, #94, .F. ) ;
#122 = ORIENTED_EDGE ( 'NONE', *, *, #130, .F. ) ;
#123 = ORIENTED_EDGE ( 'NONE', *, *, #135, .F. ) ;
#124 = EDGE_LOOP ( 'NONE', ( #98, #137, #112, #122 ) ) ;
#125 = ORIENTED_EDGE ( 'NONE', *, *, #89, .F. ) ;
#126 = ADVANCED_FACE ( 'NONE', ( #221 ), #222, .T. ) ;
#127 = EDGE_CURVE ( 'NONE', #93, #95, #287, .T. ) ;
#128 = ORIENTED_EDGE ( 'NONE', *, *, #167, .F. ) ;
#129 = ORIENTED_EDGE ( 'NONE', *, *, #111, .T. ) ;
#130 = EDGE_CURVE ( 'NONE', #160, #166, #292, .T. ) ;
#131 = ADVANCED_FACE ( 'NONE', ( #288 ), #220, .T. ) ;
#132 = ORIENTED_EDGE ( 'NONE', *, *, #127, .F. ) ;
#133 = ADVANCED_FACE ( 'NONE', ( #290 ), #191, .T. ) ;
#134 = EDGE_LOOP ( 'NONE', ( #148, #104, #150 ) ) ;
#135 = EDGE_CURVE ( 'NONE', #145, #138, #209, .T. ) ;
#136 = ADVANCED_FACE ( 'NONE', ( #311 ), #323, .T. ) ;
#137 = ORIENTED_EDGE ( 'NONE', *, *, #135, .T. ) ;
#138 = VERTEX_POINT ( 'NONE', #274 ) ;
#139 = CLOSED_SHELL ( 'NONE', ( #141, #163, #84, #156, #100, #131, #126, #133, #136, #140 ) ) ;
#140 = ADVANCED_FACE ( 'NONE', ( #273 ), #277, .T. ) ;
#141 = ADVANCED_FACE ( 'NONE', ( #272 ), #206, .T. ) ;
#142 = MANIFOLD_SOLID_BREP ( '25012-001-1-solid1', #139 ) ;
#143 = VERTEX_POINT ( 'NONE', #268 ) ;
#144 =( GEOMETRIC_REPRESENTATION_CONTEXT ( 3 ) GLOBAL_UNCERTAINTY_ASSIGNED_CONTEXT ( ( #324 ) ) GLOBAL_UNIT_ASSIGNED_CONTEXT ( ( #185, #326, #325 ) ) REPRESENTATION_CONTEXT ( 'NONE', 'WORKASPACE' ) );
#145 = VERTEX_POINT ( 'NONE', #267 ) ;
#146 = EDGE_CURVE ( 'NONE', #143, #138, #271, .T. ) ;
#147 = ADVANCED_BREP_SHAPE_REPRESENTATION ( '25012-E0W', ( #142, #1 ), #144 ) ;
#148 = ORIENTED_EDGE ( 'NONE', *, *, #146, .F. ) ;
#149 = EDGE_CURVE ( 'NONE', #138, #145, #266, .T. ) ;
#150 = ORIENTED_EDGE ( 'NONE', *, *, #149, .F. ) ;
#151 = ORIENTED_EDGE ( 'NONE', *, *, #161, .T. ) ;
#152 = EDGE_CURVE ( 'NONE', #153, #81, #256, .T. ) ;
#153 = VERTEX_POINT ( 'NONE', #251 ) ;
#154 = ORIENTED_EDGE ( 'NONE', *, *, #158, .T. ) ;
#155 = EDGE_LOOP ( 'NONE', ( #125, #114, #118, #120 ) ) ;
#156 = ADVANCED_FACE ( 'NONE', ( #269 ), #252, .T. ) ;
#157 = ORIENTED_EDGE ( 'NONE', *, *, #158, .F. ) ;
#158 = EDGE_CURVE ( 'NONE', #166, #160, #243, .T. ) ;
#159 = EDGE_LOOP ( 'NONE', ( #88, #92, #97, #105 ) ) ;
#160 = VERTEX_POINT ( 'NONE', #250 ) ;
#161 = EDGE_CURVE ( 'NONE', #145, #160, #172, .T. ) ;
#162 = ORIENTED_EDGE ( 'NONE', *, *, #149, .T. ) ;
#163 = ADVANCED_FACE ( 'NONE', ( #174 ), #173, .T. ) ;
#164 = EDGE_LOOP ( 'NONE', ( #162, #151, #157, #165 ) ) ;
#165 = ORIENTED_EDGE ( 'NONE', *, *, #87, .F. ) ;
#166 = VERTEX_POINT ( 'NONE', #199 ) ;
#167 = EDGE_CURVE ( 'NONE', #143, #145, #200, .T. ) ;
#168 = ORIENTED_EDGE ( 'NONE', *, *, #109, .T. ) ;
#169 = CARTESIAN_POINT ( 'NONE',  ( -3.035184574604602200, 12.69999999999999900, 0.09771937612868156200 ) ) ;
#170 = DIRECTION ( 'NONE',  ( -0.7071067811865541200, 0.7071067811865409100, 8.659560562354854000E-017 ) ) ;
#171 = VECTOR ( 'NONE', #170, 1000.000000000000000 ) ;
#172 = LINE ( 'NONE', #245, #171 ) ;
#173 = CONICAL_SURFACE ( 'NONE', #176, 12.55857864376269200, 0.7853981633974391800 ) ;
#174 = FACE_OUTER_BOUND ( 'NONE', #164, .T. ) ;
#175 = DIRECTION ( 'NONE',  ( 1.878145495644181100E-016, -1.000000000000000000, 0.0000000000000000000 ) ) ;
#176 = AXIS2_PLACEMENT_3D ( 'NONE', #241, #265, #201 ) ;
#177 = DIRECTION ( 'NONE',  ( 1.707404996040164500E-016, -1.000000000000000000, 0.0000000000000000000 ) ) ;
#178 = FACE_OUTER_BOUND ( 'NONE', #99, .T. ) ;
#179 = CIRCLE ( 'NONE', #310, 45.09999999999999400 ) ;
#180 = CARTESIAN_POINT ( 'NONE',  ( -1.200805743587835000, -12.55857864376267800, 0.09771937612868000800 ) ) ;
#181 = CARTESIAN_POINT ( 'NONE',  ( 42.06447876981772500, 8.294146619514108900E-015, 0.09771937612868000800 ) ) ;
#182 = VECTOR ( 'NONE', #280, 1000.000000000000000 ) ;
#183 = LINE ( 'NONE', #303, #182 ) ;
#184 = CYLINDRICAL_SURFACE ( 'NONE', #187, 12.69999999999999900 ) ;
#185 =( LENGTH_UNIT ( ) NAMED_UNIT ( * ) SI_UNIT ( .MILLI., .METRE. ) );
#186 = FACE_OUTER_BOUND ( 'NONE', #90, .T. ) ;
#187 = AXIS2_PLACEMENT_3D ( 'NONE', #302, #301, #177 ) ;
#188 = DIRECTION ( 'NONE',  ( -1.000000000000000000, -1.836970198721029400E-016, -0.0000000000000000000 ) ) ;
#189 = CARTESIAN_POINT ( 'NONE',  ( 0.6890152381413299200, 6.841244070096711400E-016, 0.09771937612868000800 ) ) ;
#190 = AXIS2_PLACEMENT_3D ( 'NONE', #189, #188, #211 ) ;
#191 = CYLINDRICAL_SURFACE ( 'NONE', #205, 12.69999999999999900 ) ;
#192 = DIRECTION ( 'NONE',  ( 1.812963573987220700E-016, -1.000000000000000000, 0.0000000000000000000 ) ) ;
#193 = DIRECTION ( 'NONE',  ( 1.899295172748517000E-016, -1.000000000000000000, 0.0000000000000000000 ) ) ;
#194 = AXIS2_PLACEMENT_3D ( 'NONE', #286, #295, #193 ) ;
#195 = DIRECTION ( 'NONE',  ( 0.0000000000000000000, -1.000000000000000000, -1.226037933409328700E-016 ) ) ;
#196 = DIRECTION ( 'NONE',  ( 2.249639673992786100E-032, -1.224646799147353200E-016, 1.000000000000000000 ) ) ;
#197 = CARTESIAN_POINT ( 'NONE',  ( -42.43484791902692900, -0.1742590593602315300, 0.09771937612867998000 ) ) ;
#198 = AXIS2_PLACEMENT_3D ( 'NONE', #197, #196, #195 ) ;
#199 = CARTESIAN_POINT ( 'NONE',  ( 0.6890152381413323600, -12.69999999999999900, 0.09771937612868000800 ) ) ;
#200 = CIRCLE ( 'NONE', #198, 45.10000000000000100 ) ;
#201 = DIRECTION ( 'NONE',  ( 1.812963573987220700E-016, -1.000000000000000000, 0.0000000000000000000 ) ) ;
#202 = CARTESIAN_POINT ( 'NONE',  ( -1.059384387350528000, 12.69999999999999900, 0.09771937612868000800 ) ) ;
#203 = CARTESIAN_POINT ( 'NONE',  ( -3.035184574604600400, 0.0000000000000000000, 0.09771937612868000800 ) ) ;
#204 = CIRCLE ( 'NONE', #223, 45.09999999999999400 ) ;
#205 = AXIS2_PLACEMENT_3D ( 'NONE', #321, #320, #319 ) ;
#206 = TOROIDAL_SURFACE ( 'NONE', #276, -0.1742590593602242900, 45.10000000000000100 ) ;
#207 = DIRECTION ( 'NONE',  ( 1.836970198721029400E-016, -1.000000000000000000, 0.0000000000000000000 ) ) ;
#208 = DIRECTION ( 'NONE',  ( -1.000000000000000000, -1.836970198721029400E-016, -0.0000000000000000000 ) ) ;
#209 = CIRCLE ( 'NONE', #314, 12.55857864376269200 ) ;
#210 = CARTESIAN_POINT ( 'NONE',  ( 42.06447876981772500, 8.294146619514108900E-015, 0.09771937612868000800 ) ) ;
#211 = DIRECTION ( 'NONE',  ( 1.878145495644181100E-016, -1.000000000000000000, 0.0000000000000000000 ) ) ;
#212 = CARTESIAN_POINT ( 'NONE',  ( -1.059384387350525500, 3.629486062613164200E-016, 0.09771937612868000800 ) ) ;
#213 = DIRECTION ( 'NONE',  ( 0.7071067811865544600, 0.7071067811865405800, 0.0000000000000000000 ) ) ;
#214 = AXIS2_PLACEMENT_3D ( 'NONE', #210, #208, #207 ) ;
#215 = CARTESIAN_POINT ( 'NONE',  ( 42.06447876981772500, 0.1742590593602429100, 0.09771937612868000800 ) ) ;
#216 = DIRECTION ( 'NONE',  ( -1.000000000000000000, -1.836970198721029400E-016, -0.0000000000000000000 ) ) ;
#217 = CARTESIAN_POINT ( 'NONE',  ( -42.43484791902692900, -7.237049501340742100E-015, 0.09771937612868000800 ) ) ;
#218 = AXIS2_PLACEMENT_3D ( 'NONE', #300, #228, #289 ) ;
#219 = DIRECTION ( 'NONE',  ( 1.878145495644181100E-016, -1.000000000000000000, 0.0000000000000000000 ) ) ;
#220 = TOROIDAL_SURFACE ( 'NONE', #214, -0.1742590593602346100, 45.09999999999999400 ) ;
#221 = FACE_OUTER_BOUND ( 'NONE', #110, .T. ) ;
#222 = CONICAL_SURFACE ( 'NONE', #218, 12.69999999999999900, 0.7853981633974382900 ) ;
#223 = AXIS2_PLACEMENT_3D ( 'NONE', #231, #306, #305 ) ;
#224 = DIRECTION ( 'NONE',  ( 1.899295172748517000E-016, -1.000000000000000000, 0.0000000000000000000 ) ) ;
#225 = DIRECTION ( 'NONE',  ( -1.000000000000000000, -1.836970198721029400E-016, -0.0000000000000000000 ) ) ;
#226 = CARTESIAN_POINT ( 'NONE',  ( -1.200805743587836300, 3.369699245742513700E-016, 0.09771937612868000800 ) ) ;
#227 = AXIS2_PLACEMENT_3D ( 'NONE', #226, #225, #224 ) ;
#228 = DIRECTION ( 'NONE',  ( 1.000000000000000000, 1.836970198721029400E-016, 0.0000000000000000000 ) ) ;
#229 = DIRECTION ( 'NONE',  ( 1.836970198721029400E-016, -1.000000000000000000, 0.0000000000000000000 ) ) ;
#230 = DIRECTION ( 'NONE',  ( -1.000000000000000000, -1.836970198721029400E-016, -0.0000000000000000000 ) ) ;
#231 = CARTESIAN_POINT ( 'NONE',  ( 42.06447876981772500, -0.1742590593602263400, 0.09771937612867998000 ) ) ;
#232 = VECTOR ( 'NONE', #281, 1000.000000000000100 ) ;
#233 = CARTESIAN_POINT ( 'NONE',  ( -1.200805743587837600, 12.55857864376267900, 0.09771937612868153400 ) ) ;
#234 = CIRCLE ( 'NONE', #227, 12.55857864376269200 ) ;
#235 = DIRECTION ( 'NONE',  ( -1.000000000000000000, -1.836970198721029400E-016, -0.0000000000000000000 ) ) ;
#236 = VECTOR ( 'NONE', #235, 1000.000000000000000 ) ;
#237 = LINE ( 'NONE', #169, #236 ) ;
#238 = CARTESIAN_POINT ( 'NONE',  ( -1.059384387350523300, -12.69999999999999900, 0.09771937612868156200 ) ) ;
#239 = LINE ( 'NONE', #238, #232 ) ;
#240 = CARTESIAN_POINT ( 'NONE',  ( 0.6890152381413299200, 6.841244070096711400E-016, 0.09771937612868000800 ) ) ;
#241 = CARTESIAN_POINT ( 'NONE',  ( 0.8304365943786404800, 7.101030886967361900E-016, 0.09771937612868000800 ) ) ;
#242 = DIRECTION ( 'NONE',  ( -1.878145495644181100E-016, 1.000000000000000000, 0.0000000000000000000 ) ) ;
#243 = CIRCLE ( 'NONE', #257, 12.69999999999999900 ) ;
#244 = DIRECTION ( 'NONE',  ( 1.000000000000000000, 1.836970198721029400E-016, 0.0000000000000000000 ) ) ;
#245 = CARTESIAN_POINT ( 'NONE',  ( 0.8304365943786382600, 12.55857864376269200, 0.09771937612868153400 ) ) ;
#246 = AXIS2_PLACEMENT_3D ( 'NONE', #264, #244, #242 ) ;
#247 = DIRECTION ( 'NONE',  ( -1.000000000000000000, -1.836970198721029400E-016, -0.0000000000000000000 ) ) ;
#248 = DIRECTION ( 'NONE',  ( 1.878145495644181100E-016, -1.000000000000000000, 0.0000000000000000000 ) ) ;
#249 = DIRECTION ( 'NONE',  ( -1.000000000000000000, -1.836970198721029400E-016, -0.0000000000000000000 ) ) ;
#250 = CARTESIAN_POINT ( 'NONE',  ( 0.6890152381413275900, 12.69999999999999900, 0.09771937612868156200 ) ) ;
#251 = CARTESIAN_POINT ( 'NONE',  ( -1.059384387350523300, -12.69999999999999900, 0.09771937612868156200 ) ) ;
#252 = CONICAL_SURFACE ( 'NONE', #246, 12.69999999999999900, 0.7853981633974382900 ) ;
#253 = AXIS2_PLACEMENT_3D ( 'NONE', #263, #249, #248 ) ;
#254 = DIRECTION ( 'NONE',  ( 1.812963573987220700E-016, -1.000000000000000000, 0.0000000000000000000 ) ) ;
#255 = DIRECTION ( 'NONE',  ( -1.000000000000000000, -1.836970198721029400E-016, -0.0000000000000000000 ) ) ;
#256 = CIRCLE ( 'NONE', #253, 12.69999999999999900 ) ;
#257 = AXIS2_PLACEMENT_3D ( 'NONE', #240, #247, #175 ) ;
#258 = AXIS2_PLACEMENT_3D ( 'NONE', #262, #255, #254 ) ;
#259 = DIRECTION ( 'NONE',  ( -1.000000000000000000, 0.0000000000000000000, 0.0000000000000000000 ) ) ;
#260 = DIRECTION ( 'NONE',  ( 0.0000000000000000000, 0.0000000000000000000, -1.000000000000000000 ) ) ;
#261 = AXIS2_PLACEMENT_3D ( 'NONE', #316, #260, #259 ) ;
#262 = CARTESIAN_POINT ( 'NONE',  ( 0.8304365943786404800, 7.101030886967361900E-016, 0.09771937612868000800 ) ) ;
#263 = CARTESIAN_POINT ( 'NONE',  ( -1.059384387350525500, 3.629486062613164200E-016, 0.09771937612868000800 ) ) ;
#264 = CARTESIAN_POINT ( 'NONE',  ( -1.059384387350525500, 3.629486062613164200E-016, 0.09771937612868000800 ) ) ;
#265 = DIRECTION ( 'NONE',  ( -1.000000000000000000, -1.836970198721029400E-016, -0.0000000000000000000 ) ) ;
#266 = CIRCLE ( 'NONE', #258, 12.55857864376269200 ) ;
#267 = CARTESIAN_POINT ( 'NONE',  ( 0.8304365943786382600, 12.55857864376269200, 0.09771937612868154800 ) ) ;
#268 = CARTESIAN_POINT ( 'NONE',  ( 2.664815425395400200, 1.047073013270986800E-015, 0.09771937612868000800 ) ) ;
#269 = FACE_OUTER_BOUND ( 'NONE', #159, .T. ) ;
#270 = DIRECTION ( 'NONE',  ( 1.836970198721029200E-016, -1.000000000000000000, 0.0000000000000000000 ) ) ;
#271 = CIRCLE ( 'NONE', #261, 45.10000000000000900 ) ;
#272 = FACE_OUTER_BOUND ( 'NONE', #134, .T. ) ;
#273 = FACE_OUTER_BOUND ( 'NONE', #117, .T. ) ;
#274 = CARTESIAN_POINT ( 'NONE',  ( 0.8304365943786428100, -12.55857864376269200, 0.09771937612868000800 ) ) ;
#275 = AXIS2_PLACEMENT_3D ( 'NONE', #217, #216, #270 ) ;
#276 = AXIS2_PLACEMENT_3D ( 'NONE', #318, #279, #278 ) ;
#277 = TOROIDAL_SURFACE ( 'NONE', #275, -0.1742590593602242900, 45.10000000000000100 ) ;
#278 = DIRECTION ( 'NONE',  ( 1.836970198721029200E-016, -1.000000000000000000, 0.0000000000000000000 ) ) ;
#279 = DIRECTION ( 'NONE',  ( -1.000000000000000000, -1.836970198721029400E-016, -0.0000000000000000000 ) ) ;
#280 = DIRECTION ( 'NONE',  ( -1.000000000000000000, -1.836970198721029400E-016, -0.0000000000000000000 ) ) ;
#281 = DIRECTION ( 'NONE',  ( 0.7071067811865546800, -0.7071067811865403600, 8.659560562354846600E-017 ) ) ;
#282 = AXIS2_PLACEMENT_3D ( 'NONE', #181, #230, #229 ) ;
#283 = DIRECTION ( 'NONE',  ( -0.7071067811865539000, -0.7071067811865411300, 0.0000000000000000000 ) ) ;
#284 = VECTOR ( 'NONE', #283, 1000.000000000000000 ) ;
#285 = LINE ( 'NONE', #304, #284 ) ;
#286 = CARTESIAN_POINT ( 'NONE',  ( -1.200805743587836300, 3.369699245742513700E-016, 0.09771937612868000800 ) ) ;
#287 = CIRCLE ( 'NONE', #194, 12.55857864376269200 ) ;
#288 = FACE_OUTER_BOUND ( 'NONE', #108, .T. ) ;
#289 = DIRECTION ( 'NONE',  ( -1.878145495644181100E-016, 1.000000000000000000, 0.0000000000000000000 ) ) ;
#290 = FACE_OUTER_BOUND ( 'NONE', #155, .T. ) ;
#291 = DIRECTION ( 'NONE',  ( -1.000000000000000000, -1.836970198721029400E-016, -0.0000000000000000000 ) ) ;
#292 = CIRCLE ( 'NONE', #190, 12.69999999999999900 ) ;
#293 = TOROIDAL_SURFACE ( 'NONE', #282, -0.1742590593602346100, 45.09999999999999400 ) ;
#294 = CIRCLE ( 'NONE', #297, 12.69999999999999900 ) ;
#295 = DIRECTION ( 'NONE',  ( -1.000000000000000000, -1.836970198721029400E-016, -0.0000000000000000000 ) ) ;
#296 = DIRECTION ( 'NONE',  ( -1.000000000000000000, -1.836970198721029400E-016, -0.0000000000000000000 ) ) ;
#297 = AXIS2_PLACEMENT_3D ( 'NONE', #212, #296, #219 ) ;
#298 = DIRECTION ( 'NONE',  ( -1.000000000000000000, 0.0000000000000000000, 0.0000000000000000000 ) ) ;
#299 = DIRECTION ( 'NONE',  ( 0.0000000000000000000, 0.0000000000000000000, -1.000000000000000000 ) ) ;
#300 = CARTESIAN_POINT ( 'NONE',  ( -1.059384387350525500, 3.629486062613164200E-016, 0.09771937612868000800 ) ) ;
#301 = DIRECTION ( 'NONE',  ( -1.000000000000000000, -1.836970198721029400E-016, -0.0000000000000000000 ) ) ;
#302 = CARTESIAN_POINT ( 'NONE',  ( -3.035184574604600400, 0.0000000000000000000, 0.09771937612868000800 ) ) ;
#303 = CARTESIAN_POINT ( 'NONE',  ( -3.035184574604598200, -12.69999999999999900, 0.09771937612868000800 ) ) ;
#304 = CARTESIAN_POINT ( 'NONE',  ( 0.8304365943786428100, -12.55857864376269200, 0.09771937612868000800 ) ) ;
#305 = DIRECTION ( 'NONE',  ( 0.0000000000000000000, -1.000000000000000000, -1.226037933409328900E-016 ) ) ;
#306 = DIRECTION ( 'NONE',  ( 2.249639673992786100E-032, -1.224646799147353200E-016, 1.000000000000000000 ) ) ;
#307 = VECTOR ( 'NONE', #213, 1000.000000000000000 ) ;
#308 = CARTESIAN_POINT ( 'NONE',  ( -1.059384387350528000, 12.69999999999999900, 0.09771937612868000800 ) ) ;
#309 = LINE ( 'NONE', #308, #307 ) ;
#310 = AXIS2_PLACEMENT_3D ( 'NONE', #215, #299, #298 ) ;
#311 = FACE_OUTER_BOUND ( 'NONE', #124, .T. ) ;
#312 = DIRECTION ( 'NONE',  ( 1.812963573987220700E-016, -1.000000000000000000, 0.0000000000000000000 ) ) ;
#313 = DIRECTION ( 'NONE',  ( -1.000000000000000000, -1.836970198721029400E-016, -0.0000000000000000000 ) ) ;
#314 = AXIS2_PLACEMENT_3D ( 'NONE', #322, #313, #312 ) ;
#315 = AXIS2_PLACEMENT_3D ( 'NONE', #317, #291, #192 ) ;
#316 = CARTESIAN_POINT ( 'NONE',  ( -42.43484791902692900, 0.1742590593602170700, 0.09771937612868000800 ) ) ;
#317 = CARTESIAN_POINT ( 'NONE',  ( 0.8304365943786404800, 7.101030886967361900E-016, 0.09771937612868000800 ) ) ;
#318 = CARTESIAN_POINT ( 'NONE',  ( -42.43484791902692900, -7.237049501340742100E-015, 0.09771937612868000800 ) ) ;
#319 = DIRECTION ( 'NONE',  ( 1.707404996040164500E-016, -1.000000000000000000, 0.0000000000000000000 ) ) ;
#320 = DIRECTION ( 'NONE',  ( -1.000000000000000000, -1.836970198721029400E-016, -0.0000000000000000000 ) ) ;
#321 = CARTESIAN_POINT ( 'NONE',  ( -3.035184574604600400, 0.0000000000000000000, 0.09771937612868000800 ) ) ;
#322 = CARTESIAN_POINT ( 'NONE',  ( 0.8304365943786404800, 7.101030886967361900E-016, 0.09771937612868000800 ) ) ;
#323 = CONICAL_SURFACE ( 'NONE', #315, 12.55857864376269200, 0.7853981633974391800 ) ;
#324 = UNCERTAINTY_MEASURE_WITH_UNIT (LENGTH_MEASURE( 1.000000000000000100E-005 ), #185, 'distance_accuracy_value', 'NONE');
#325 =( NAMED_UNIT ( * ) SI_UNIT ( $, .STERADIAN. ) SOLID_ANGLE_UNIT ( ) );
#326 =( NAMED_UNIT ( * ) PLANE_ANGLE_UNIT ( ) SI_UNIT ( $, .RADIAN. ) );
#327 = DIRECTION ( 'NONE',  ( 1.000000000000000000, 0.0000000000000000000, 0.0000000000000000000 ) ) ;
ENDSEC;
END-ISO-10303-21;
