ISO-10303-21;
HEADER;
FILE_DESCRIPTION (( 'STEP AP203' ),
    '1' );
FILE_NAME ('24985-E0W.STEP',
    '2012-09-28T16:19:25',
    ( 'Admin' ),
    ( 'Thorlabs, Inc.' ),
    'SwSTEP 2.0',
    'SolidWorks 2011',
    '' );
FILE_SCHEMA (( 'CONFIG_CONTROL_DESIGN' ));
ENDSEC;

DATA;
#1 = ORIENTED_EDGE ( 'NONE', *, *, #299, .T. ) ;
#2 = EDGE_CURVE ( 'NONE', #85, #301, #75, .T. ) ;
#3 = ORIENTED_EDGE ( 'NONE', *, *, #24, .T. ) ;
#4 = EDGE_CURVE ( 'NONE', #85, #26, #33, .T. ) ;
#5 = ORIENTED_EDGE ( 'NONE', *, *, #27, .F. ) ;
#6 = ADVANCED_FACE ( 'NONE', ( #77 ), #88, .T. ) ;
#7 = ORIENTED_EDGE ( 'NONE', *, *, #13, .F. ) ;
#8 = ORIENTED_EDGE ( 'NONE', *, *, #9, .F. ) ;
#9 = EDGE_CURVE ( 'NONE', #14, #100, #60, .T. ) ;
#10 = ORIENTED_EDGE ( 'NONE', *, *, #21, .F. ) ;
#11 = ORIENTED_EDGE ( 'NONE', *, *, #84, .T. ) ;
#12 = ORIENTED_EDGE ( 'NONE', *, *, #13, .T. ) ;
#13 = EDGE_CURVE ( 'NONE', #30, #104, #87, .T. ) ;
#14 = VERTEX_POINT ( 'NONE', #46 ) ;
#15 = EDGE_CURVE ( 'NONE', #14, #30, #70, .T. ) ;
#16 = ADVANCED_FACE ( 'NONE', ( #53 ), #47, .T. ) ;
#17 = ORIENTED_EDGE ( 'NONE', *, *, #103, .F. ) ;
#18 = ORIENTED_EDGE ( 'NONE', *, *, #15, .F. ) ;
#19 = ORIENTED_EDGE ( 'NONE', *, *, #15, .T. ) ;
#20 = ORIENTED_EDGE ( 'NONE', *, *, #4, .T. ) ;
#21 = EDGE_CURVE ( 'NONE', #30, #14, #39, .T. ) ;
#22 = EDGE_LOOP ( 'NONE', ( #7, #52, #83, #79 ) ) ;
#23 = EDGE_LOOP ( 'NONE', ( #5, #3, #20 ) ) ;
#24 = EDGE_CURVE ( 'NONE', #293, #85, #184, .T. ) ;
#25 = ADVANCED_FACE ( 'NONE', ( #132 ), #169, .T. ) ;
#26 = VERTEX_POINT ( 'NONE', #185 ) ;
#27 = EDGE_CURVE ( 'NONE', #293, #26, #108, .T. ) ;
#28 = ORIENTED_EDGE ( 'NONE', *, *, #4, .F. ) ;
#29 = EDGE_LOOP ( 'NONE', ( #11, #106, #28 ) ) ;
#30 = VERTEX_POINT ( 'NONE', #171 ) ;
#31 = EDGE_CURVE ( 'NONE', #296, #301, #172, .T. ) ;
#32 = MANIFOLD_SOLID_BREP ( '24985-001-1-solid1', #86 ) ;
#33 = CIRCLE ( 'NONE', #68, 34.51000000000000500 ) ;
#34 = EDGE_LOOP ( 'NONE', ( #48, #50, #49, #80 ) ) ;
#35 = DIRECTION ( 'NONE',  ( 1.000000000000000000, 0.0000000000000000000, 0.0000000000000000000 ) ) ;
#36 = DIRECTION ( 'NONE',  ( -0.0000000000000000000, -0.0000000000000000000, 1.000000000000000000 ) ) ;
#37 = CARTESIAN_POINT ( 'NONE',  ( 0.0000000000000000000, 0.0000000000000000000, -2.210023622486879900 ) ) ;
#38 = AXIS2_PLACEMENT_3D ( 'NONE', #37, #36, #287 ) ;
#39 = CIRCLE ( 'NONE', #38, 12.55857864376269000 ) ;
#40 = CARTESIAN_POINT ( 'NONE',  ( 0.0000000000000000000, 0.0000000000000000000, -32.30002330978335600 ) ) ;
#41 = DIRECTION ( 'NONE',  ( 1.000000000000000000, 0.0000000000000000000, 0.0000000000000000000 ) ) ;
#42 = DIRECTION ( 'NONE',  ( -0.0000000000000000000, -0.0000000000000000000, 1.000000000000000000 ) ) ;
#43 = CARTESIAN_POINT ( 'NONE',  ( 0.0000000000000000000, 0.0000000000000000000, -2.210023622486879900 ) ) ;
#44 = AXIS2_PLACEMENT_3D ( 'NONE', #40, #45, #35 ) ;
#45 = DIRECTION ( 'NONE',  ( -0.0000000000000000000, -0.0000000000000000000, 1.000000000000000000 ) ) ;
#46 = CARTESIAN_POINT ( 'NONE',  ( 12.55857864376269000, 0.0000000000000000000, -2.210023622486879900 ) ) ;
#47 = TOROIDAL_SURFACE ( 'NONE', #44, 0.004645728877362281800, 34.51000000000000500 ) ;
#48 = ORIENTED_EDGE ( 'NONE', *, *, #94, .F. ) ;
#49 = ORIENTED_EDGE ( 'NONE', *, *, #93, .T. ) ;
#50 = ORIENTED_EDGE ( 'NONE', *, *, #82, .T. ) ;
#51 = ADVANCED_FACE ( 'NONE', ( #151 ), #144, .T. ) ;
#52 = ORIENTED_EDGE ( 'NONE', *, *, #21, .T. ) ;
#53 = FACE_OUTER_BOUND ( 'NONE', #29, .T. ) ;
#54 = ADVANCED_FACE ( 'NONE', ( #173 ), #156, .T. ) ;
#55 = ORIENTED_EDGE ( 'NONE', *, *, #2, .F. ) ;
#56 = ORIENTED_EDGE ( 'NONE', *, *, #24, .F. ) ;
#57 = DIRECTION ( 'NONE',  ( 0.7071067811865388000, 0.0000000000000000000, 0.7071067811865561200 ) ) ;
#58 = VECTOR ( 'NONE', #57, 1000.000000000000100 ) ;
#59 = CARTESIAN_POINT ( 'NONE',  ( 12.55857864376269000, 0.0000000000000000000, -2.210023622486879900 ) ) ;
#60 = LINE ( 'NONE', #59, #58 ) ;
#61 = DIRECTION ( 'NONE',  ( -0.0000000000000000000, -0.0000000000000000000, 1.000000000000000000 ) ) ;
#62 = CARTESIAN_POINT ( 'NONE',  ( 0.0000000000000000000, 0.0000000000000000000, -2.210023622486879900 ) ) ;
#63 = DIRECTION ( 'NONE',  ( -0.7071067811865388000, 8.659560562354826900E-017, 0.7071067811865561200 ) ) ;
#64 = VECTOR ( 'NONE', #63, 1000.000000000000100 ) ;
#65 = DIRECTION ( 'NONE',  ( 0.0000000000000000000, 0.0000000000000000000, -1.000000000000000000 ) ) ;
#66 = DIRECTION ( 'NONE',  ( 0.0000000000000000000, -1.000000000000000000, 0.0000000000000000000 ) ) ;
#67 = CARTESIAN_POINT ( 'NONE',  ( 0.004645728877362281800, 0.0000000000000000000, -32.30002330978335600 ) ) ;
#68 = AXIS2_PLACEMENT_3D ( 'NONE', #67, #66, #65 ) ;
#69 = AXIS2_PLACEMENT_3D ( 'NONE', #43, #42, #41 ) ;
#70 = CIRCLE ( 'NONE', #69, 12.55857864376269000 ) ;
#71 = DIRECTION ( 'NONE',  ( 1.000000000000000000, 0.0000000000000000000, 0.0000000000000000000 ) ) ;
#72 = DIRECTION ( 'NONE',  ( 0.7071067811865519000, 8.659560562354987100E-017, -0.7071067811865431300 ) ) ;
#73 = VECTOR ( 'NONE', #72, 1000.000000000000000 ) ;
#74 = CARTESIAN_POINT ( 'NONE',  ( 12.69999999999999900, 1.555301434917138400E-015, -0.2958560360304049500 ) ) ;
#75 = LINE ( 'NONE', #74, #73 ) ;
#76 = AXIS2_PLACEMENT_3D ( 'NONE', #62, #61, #71 ) ;
#77 = FACE_OUTER_BOUND ( 'NONE', #22, .T. ) ;
#78 = EDGE_LOOP ( 'NONE', ( #55, #56, #107, #81 ) ) ;
#79 = ORIENTED_EDGE ( 'NONE', *, *, #82, .F. ) ;
#80 = ORIENTED_EDGE ( 'NONE', *, *, #31, .F. ) ;
#81 = ORIENTED_EDGE ( 'NONE', *, *, #31, .T. ) ;
#82 = EDGE_CURVE ( 'NONE', #104, #100, #126, .T. ) ;
#83 = ORIENTED_EDGE ( 'NONE', *, *, #9, .T. ) ;
#84 = EDGE_CURVE ( 'NONE', #85, #293, #120, .T. ) ;
#85 = VERTEX_POINT ( 'NONE', #128 ) ;
#86 = CLOSED_SHELL ( 'NONE', ( #295, #96, #89, #16, #25, #91, #6, #51, #54 ) ) ;
#87 = LINE ( 'NONE', #294, #64 ) ;
#88 = CONICAL_SURFACE ( 'NONE', #76, 12.55857864376269000, 0.7853981633974360700 ) ;
#89 = ADVANCED_FACE ( 'NONE', ( #143 ), #125, .T. ) ;
#90 = EDGE_LOOP ( 'NONE', ( #19, #12, #17, #8 ) ) ;
#91 = ADVANCED_FACE ( 'NONE', ( #163 ), #162, .F. ) ;
#92 = ORIENTED_EDGE ( 'NONE', *, *, #93, .F. ) ;
#93 = EDGE_CURVE ( 'NONE', #100, #301, #208, .T. ) ;
#94 = EDGE_CURVE ( 'NONE', #104, #296, #202, .T. ) ;
#95 = ORIENTED_EDGE ( 'NONE', *, *, #94, .T. ) ;
#96 = ADVANCED_FACE ( 'NONE', ( #209 ), #118, .T. ) ;
#97 = ORIENTED_EDGE ( 'NONE', *, *, #103, .T. ) ;
#98 = ORIENTED_EDGE ( 'NONE', *, *, #299, .F. ) ;
#99 = EDGE_LOOP ( 'NONE', ( #97, #95, #98, #92 ) ) ;
#100 = VERTEX_POINT ( 'NONE', #198 ) ;
#101 = EDGE_LOOP ( 'NONE', ( #18, #10 ) ) ;
#102 = EDGE_CURVE ( 'NONE', #293, #296, #189, .T. ) ;
#103 = EDGE_CURVE ( 'NONE', #100, #104, #186, .T. ) ;
#104 = VERTEX_POINT ( 'NONE', #206 ) ;
#105 = ORIENTED_EDGE ( 'NONE', *, *, #102, .F. ) ;
#106 = ORIENTED_EDGE ( 'NONE', *, *, #27, .T. ) ;
#107 = ORIENTED_EDGE ( 'NONE', *, *, #102, .T. ) ;
#108 = CIRCLE ( 'NONE', #148, 34.51000000000001200 ) ;
#109 =( GEOMETRIC_REPRESENTATION_CONTEXT ( 3 ) GLOBAL_UNCERTAINTY_ASSIGNED_CONTEXT ( ( #110 ) ) GLOBAL_UNIT_ASSIGNED_CONTEXT ( ( #113, #112, #111 ) ) REPRESENTATION_CONTEXT ( 'NONE', 'WORKASPACE' ) );
#110 = UNCERTAINTY_MEASURE_WITH_UNIT (LENGTH_MEASURE( 1.000000000000000100E-005 ), #113, 'distance_accuracy_value', 'NONE');
#111 =( NAMED_UNIT ( * ) SI_UNIT ( $, .STERADIAN. ) SOLID_ANGLE_UNIT ( ) );
#112 =( NAMED_UNIT ( * ) PLANE_ANGLE_UNIT ( ) SI_UNIT ( $, .RADIAN. ) );
#113 =( LENGTH_UNIT ( ) NAMED_UNIT ( * ) SI_UNIT ( .MILLI., .METRE. ) );
#114 = DIRECTION ( 'NONE',  ( 1.000000000000000000, 0.0000000000000000000, 0.0000000000000000000 ) ) ;
#115 = DIRECTION ( 'NONE',  ( -0.0000000000000000000, -0.0000000000000000000, 1.000000000000000000 ) ) ;
#116 = CARTESIAN_POINT ( 'NONE',  ( 0.0000000000000000000, 0.0000000000000000000, -0.1544346797930987200 ) ) ;
#117 = CARTESIAN_POINT ( 'NONE',  ( 0.0000000000000000000, 0.0000000000000000000, -2.210023622486879900 ) ) ;
#118 = CYLINDRICAL_SURFACE ( 'NONE', #159, 12.69999999999999900 ) ;
#119 = CARTESIAN_POINT ( 'NONE',  ( 0.0000000000000000000, 0.0000000000000000000, -2.210023622486876300 ) ) ;
#120 = CIRCLE ( 'NONE', #155, 12.55857864376269200 ) ;
#121 = DIRECTION ( 'NONE',  ( 1.000000000000000000, 0.0000000000000000000, 0.0000000000000000000 ) ) ;
#122 = DIRECTION ( 'NONE',  ( -0.0000000000000000000, -0.0000000000000000000, 1.000000000000000000 ) ) ;
#123 = CARTESIAN_POINT ( 'NONE',  ( 0.0000000000000000000, 0.0000000000000000000, -2.068602266249566700 ) ) ;
#124 = AXIS2_PLACEMENT_3D ( 'NONE', #123, #122, #121 ) ;
#125 = CONICAL_SURFACE ( 'NONE', #175, 12.55857864376269000, 0.7853981633974360700 ) ;
#126 = CIRCLE ( 'NONE', #124, 12.69999999999999900 ) ;
#127 = DIRECTION ( 'NONE',  ( -1.000000000000000000, 0.0000000000000000000, 0.0000000000000000000 ) ) ;
#128 = CARTESIAN_POINT ( 'NONE',  ( 12.55857864376269700, 0.0000000000000000000, -0.1544346797930987200 ) ) ;
#129 = DIRECTION ( 'NONE',  ( 0.0000000000000000000, 0.0000000000000000000, -1.000000000000000000 ) ) ;
#130 = CARTESIAN_POINT ( 'NONE',  ( 0.0000000000000000000, 0.0000000000000000000, -0.2958560360304049500 ) ) ;
#131 = CARTESIAN_POINT ( 'NONE',  ( 0.0000000000000000000, 0.0000000000000000000, -32.30002330978335600 ) ) ;
#132 = FACE_OUTER_BOUND ( 'NONE', #23, .T. ) ;
#133 = DIRECTION ( 'NONE',  ( 1.000000000000000000, 0.0000000000000000000, 0.0000000000000000000 ) ) ;
#134 = DIRECTION ( 'NONE',  ( -0.0000000000000000000, -0.0000000000000000000, 1.000000000000000000 ) ) ;
#135 = CARTESIAN_POINT ( 'NONE',  ( 0.0000000000000000000, 0.0000000000000000000, -0.1544346797930987200 ) ) ;
#136 = AXIS2_PLACEMENT_3D ( 'NONE', #135, #134, #133 ) ;
#137 = DIRECTION ( 'NONE',  ( -0.0000000000000000000, -0.0000000000000000000, 1.000000000000000000 ) ) ;
#138 = CIRCLE ( 'NONE', #194, 12.69999999999999900 ) ;
#139 = DIRECTION ( 'NONE',  ( -1.000000000000000000, 0.0000000000000000000, 0.0000000000000000000 ) ) ;
#140 = DIRECTION ( 'NONE',  ( 0.0000000000000000000, 0.0000000000000000000, -1.000000000000000000 ) ) ;
#141 = CARTESIAN_POINT ( 'NONE',  ( 0.0000000000000000000, 0.0000000000000000000, 0.0000000000000000000 ) ) ;
#142 = CARTESIAN_POINT ( 'NONE',  ( -0.004645728877362281800, 5.689376999368144400E-019, -32.30002330978335600 ) ) ;
#143 = FACE_OUTER_BOUND ( 'NONE', #90, .T. ) ;
#144 = CYLINDRICAL_SURFACE ( 'NONE', #152, 12.69999999999999900 ) ;
#145 = DIRECTION ( 'NONE',  ( -0.0000000000000000000, -0.0000000000000000000, 1.000000000000000000 ) ) ;
#146 = DIRECTION ( 'NONE',  ( -1.000000000000000000, 1.224646799147353000E-016, 0.0000000000000000000 ) ) ;
#147 = DIRECTION ( 'NONE',  ( 1.224646799147353200E-016, 1.000000000000000000, 0.0000000000000000000 ) ) ;
#148 = AXIS2_PLACEMENT_3D ( 'NONE', #142, #147, #146 ) ;
#149 = DIRECTION ( 'NONE',  ( 1.000000000000000000, 0.0000000000000000000, 0.0000000000000000000 ) ) ;
#150 = CARTESIAN_POINT ( 'NONE',  ( 0.0000000000000000000, 0.0000000000000000000, -0.2958560360304049500 ) ) ;
#151 = FACE_OUTER_BOUND ( 'NONE', #34, .T. ) ;
#152 = AXIS2_PLACEMENT_3D ( 'NONE', #176, #174, #149 ) ;
#153 = AXIS2_PLACEMENT_3D ( 'NONE', #130, #129, #127 ) ;
#154 = DIRECTION ( 'NONE',  ( -0.0000000000000000000, -0.0000000000000000000, 1.000000000000000000 ) ) ;
#155 = AXIS2_PLACEMENT_3D ( 'NONE', #116, #154, #166 ) ;
#156 = CONICAL_SURFACE ( 'NONE', #153, 12.69999999999999900, 0.7853981633974545000 ) ;
#157 = DIRECTION ( 'NONE',  ( 1.000000000000000000, 0.0000000000000000000, 0.0000000000000000000 ) ) ;
#158 = DIRECTION ( 'NONE',  ( -0.0000000000000000000, -0.0000000000000000000, 1.000000000000000000 ) ) ;
#159 = AXIS2_PLACEMENT_3D ( 'NONE', #203, #197, #210 ) ;
#160 = CARTESIAN_POINT ( 'NONE',  ( -12.69999999999999900, 0.0000000000000000000, -0.2958560360304049500 ) ) ;
#161 = AXIS2_PLACEMENT_3D ( 'NONE', #119, #165, #164 ) ;
#162 = PLANE ( 'NONE',  #161 ) ;
#163 = FACE_OUTER_BOUND ( 'NONE', #101, .T. ) ;
#164 = DIRECTION ( 'NONE',  ( 1.000000000000000000, 0.0000000000000000000, 0.0000000000000000000 ) ) ;
#165 = DIRECTION ( 'NONE',  ( 0.0000000000000000000, -0.0000000000000000000, 1.000000000000000000 ) ) ;
#166 = DIRECTION ( 'NONE',  ( 1.000000000000000000, 0.0000000000000000000, 0.0000000000000000000 ) ) ;
#167 = DIRECTION ( 'NONE',  ( 1.000000000000000000, 0.0000000000000000000, 0.0000000000000000000 ) ) ;
#168 = AXIS2_PLACEMENT_3D ( 'NONE', #131, #137, #167 ) ;
#169 = TOROIDAL_SURFACE ( 'NONE', #168, 0.004645728877362281800, 34.51000000000000500 ) ;
#170 = AXIS2_PLACEMENT_3D ( 'NONE', #150, #145, #157 ) ;
#171 = CARTESIAN_POINT ( 'NONE',  ( -12.55857864376269000, 1.546641874354783400E-015, -2.210023622486879900 ) ) ;
#172 = CIRCLE ( 'NONE', #170, 12.69999999999999900 ) ;
#173 = FACE_OUTER_BOUND ( 'NONE', #78, .T. ) ;
#174 = DIRECTION ( 'NONE',  ( -0.0000000000000000000, -0.0000000000000000000, 1.000000000000000000 ) ) ;
#175 = AXIS2_PLACEMENT_3D ( 'NONE', #117, #158, #211 ) ;
#176 = CARTESIAN_POINT ( 'NONE',  ( 0.0000000000000000000, 0.0000000000000000000, 39.55482590683998700 ) ) ;
#177 = CARTESIAN_POINT ( 'NONE',  ( 0.0000000000000000000, 0.0000000000000000000, -0.2958560360304049500 ) ) ;
#178 = AXIS2_PLACEMENT_3D ( 'NONE', #177, #140, #139 ) ;
#179 = AXIS2_PLACEMENT_3D ( 'NONE', #141, #213, #212 ) ;
#180 = DIRECTION ( 'NONE',  ( 1.000000000000000000, 0.0000000000000000000, 0.0000000000000000000 ) ) ;
#181 = DIRECTION ( 'NONE',  ( -0.0000000000000000000, -0.0000000000000000000, 1.000000000000000000 ) ) ;
#182 = FACE_OUTER_BOUND ( 'NONE', #297, .T. ) ;
#183 = CARTESIAN_POINT ( 'NONE',  ( -12.55857864376269700, 1.537982313792429600E-015, -0.1544346797930987200 ) ) ;
#184 = CIRCLE ( 'NONE', #136, 12.55857864376269200 ) ;
#185 = CARTESIAN_POINT ( 'NONE',  ( 0.0000000000000000000, 0.0000000000000000000, 2.209976377513124000 ) ) ;
#186 = CIRCLE ( 'NONE', #196, 12.69999999999999900 ) ;
#187 = DIRECTION ( 'NONE',  ( -0.7071067811865519000, 0.0000000000000000000, -0.7071067811865431300 ) ) ;
#188 = VECTOR ( 'NONE', #187, 1000.000000000000000 ) ;
#189 = LINE ( 'NONE', #160, #188 ) ;
#190 = CARTESIAN_POINT ( 'NONE',  ( 12.69999999999999900, 0.0000000000000000000, -0.2958560360304049500 ) ) ;
#191 = CARTESIAN_POINT ( 'NONE',  ( -12.69999999999999900, 1.555301434917138400E-015, -0.2958560360304049500 ) ) ;
#192 = CARTESIAN_POINT ( 'NONE',  ( 0.0000000000000000000, 0.0000000000000000000, -2.068602266249566700 ) ) ;
#193 = CARTESIAN_POINT ( 'NONE',  ( 0.0000000000000000000, 0.0000000000000000000, -0.2958560360304049500 ) ) ;
#194 = AXIS2_PLACEMENT_3D ( 'NONE', #193, #115, #114 ) ;
#195 = CONICAL_SURFACE ( 'NONE', #178, 12.69999999999999900, 0.7853981633974545000 ) ;
#196 = AXIS2_PLACEMENT_3D ( 'NONE', #192, #181, #180 ) ;
#197 = DIRECTION ( 'NONE',  ( -0.0000000000000000000, -0.0000000000000000000, 1.000000000000000000 ) ) ;
#198 = CARTESIAN_POINT ( 'NONE',  ( 12.69999999999999900, 0.0000000000000000000, -2.068602266249566700 ) ) ;
#199 = DIRECTION ( 'NONE',  ( -0.0000000000000000000, -0.0000000000000000000, 1.000000000000000000 ) ) ;
#200 = VECTOR ( 'NONE', #199, 1000.000000000000000 ) ;
#201 = CARTESIAN_POINT ( 'NONE',  ( -12.69999999999999900, 1.555301434917138400E-015, 39.55482590683998700 ) ) ;
#202 = LINE ( 'NONE', #201, #200 ) ;
#203 = CARTESIAN_POINT ( 'NONE',  ( 0.0000000000000000000, 0.0000000000000000000, 39.55482590683998700 ) ) ;
#204 = DIRECTION ( 'NONE',  ( -0.0000000000000000000, -0.0000000000000000000, 1.000000000000000000 ) ) ;
#205 = VECTOR ( 'NONE', #204, 1000.000000000000000 ) ;
#206 = CARTESIAN_POINT ( 'NONE',  ( -12.69999999999999900, 1.555301434917138400E-015, -2.068602266249566700 ) ) ;
#207 = CARTESIAN_POINT ( 'NONE',  ( 12.69999999999999900, 0.0000000000000000000, 39.55482590683998700 ) ) ;
#208 = LINE ( 'NONE', #207, #205 ) ;
#209 = FACE_OUTER_BOUND ( 'NONE', #99, .T. ) ;
#210 = DIRECTION ( 'NONE',  ( 1.000000000000000000, 0.0000000000000000000, 0.0000000000000000000 ) ) ;
#211 = DIRECTION ( 'NONE',  ( 1.000000000000000000, 0.0000000000000000000, 0.0000000000000000000 ) ) ;
#212 = DIRECTION ( 'NONE',  ( 1.000000000000000000, 0.0000000000000000000, 0.0000000000000000000 ) ) ;
#213 = DIRECTION ( 'NONE',  ( 0.0000000000000000000, 0.0000000000000000000, 1.000000000000000000 ) ) ;
#214 = ADVANCED_BREP_SHAPE_REPRESENTATION ( '24985-E0W', ( #32, #179 ), #109 ) ;
#215 = COORDINATED_UNIVERSAL_TIME_OFFSET ( 5, 0, .BEHIND. ) ;
#216 = APPROVAL_PERSON_ORGANIZATION ( #233, #218, #217 ) ;
#217 = APPROVAL_ROLE ( '' ) ;
#218 = APPROVAL ( #219, 'UNSPECIFIED' ) ;
#219 = APPROVAL_STATUS ( 'not_yet_approved' ) ;
#220 = DESIGN_CONTEXT ( 'detailed design', #284, 'design' ) ;
#221 = APPROVAL_DATE_TIME ( #222, #247 ) ;
#222 = DATE_AND_TIME ( #223, #224 ) ;
#223 = CALENDAR_DATE ( 2012, 28, 9 ) ;
#224 = LOCAL_TIME ( 12, 19, 25.00000000000000000, #225 ) ;
#225 = COORDINATED_UNIVERSAL_TIME_OFFSET ( 5, 0, .BEHIND. ) ;
#226 = CC_DESIGN_SECURITY_CLASSIFICATION ( #273, ( #272 ) ) ;
#227 = CC_DESIGN_APPROVAL ( #218, ( #273 ) ) ;
#228 = APPROVAL_DATE_TIME ( #229, #218 ) ;
#229 = DATE_AND_TIME ( #230, #231 ) ;
#230 = CALENDAR_DATE ( 2012, 28, 9 ) ;
#231 = LOCAL_TIME ( 12, 19, 25.00000000000000000, #215 ) ;
#232 = PRODUCT_RELATED_PRODUCT_CATEGORY ( 'detail', '', ( #290 ) ) ;
#233 = PERSON_AND_ORGANIZATION ( #288, #239 ) ;
#234 = CC_DESIGN_DATE_AND_TIME_ASSIGNMENT ( #236, #235, ( #273 ) ) ;
#235 = DATE_TIME_ROLE ( 'classification_date' ) ;
#236 = DATE_AND_TIME ( #237, #238 ) ;
#237 = CALENDAR_DATE ( 2012, 28, 9 ) ;
#238 = LOCAL_TIME ( 12, 19, 25.00000000000000000, #267 ) ;
#239 = ORGANIZATION ( 'UNSPECIFIED', 'UNSPECIFIED', '' ) ;
#240 = PERSON_AND_ORGANIZATION ( #288, #239 ) ;
#241 = PRODUCT_DEFINITION ( 'UNKNOWN', '', #272, #220 ) ;
#242 = APPLICATION_PROTOCOL_DEFINITION ( 'international standard', 'config_control_design', 1994, #284 ) ;
#243 = PERSON_AND_ORGANIZATION ( #288, #239 ) ;
#244 = CC_DESIGN_APPROVAL ( #247, ( #272 ) ) ;
#245 = APPROVAL_PERSON_ORGANIZATION ( #249, #247, #246 ) ;
#246 = APPROVAL_ROLE ( '' ) ;
#247 = APPROVAL ( #248, 'UNSPECIFIED' ) ;
#248 = APPROVAL_STATUS ( 'not_yet_approved' ) ;
#249 = PERSON_AND_ORGANIZATION ( #288, #239 ) ;
#250 = CALENDAR_DATE ( 2012, 28, 9 ) ;
#251 = COORDINATED_UNIVERSAL_TIME_OFFSET ( 5, 0, .BEHIND. ) ;
#252 = APPROVAL_STATUS ( 'not_yet_approved' ) ;
#253 = PERSON_AND_ORGANIZATION ( #288, #239 ) ;
#254 = APPROVAL_ROLE ( '' ) ;
#255 = APPROVAL ( #252, 'UNSPECIFIED' ) ;
#256 = CC_DESIGN_DATE_AND_TIME_ASSIGNMENT ( #258, #257, ( #241 ) ) ;
#257 = DATE_TIME_ROLE ( 'creation_date' ) ;
#258 = DATE_AND_TIME ( #250, #259 ) ;
#259 = LOCAL_TIME ( 12, 19, 25.00000000000000000, #251 ) ;
#260 = PERSON_AND_ORGANIZATION ( #288, #239 ) ;
#261 = CC_DESIGN_PERSON_AND_ORGANIZATION_ASSIGNMENT ( #243, #262, ( #272 ) ) ;
#262 = PERSON_AND_ORGANIZATION_ROLE ( 'creator' ) ;
#263 = APPROVAL_DATE_TIME ( #264, #255 ) ;
#264 = DATE_AND_TIME ( #265, #281 ) ;
#265 = CALENDAR_DATE ( 2012, 28, 9 ) ;
#266 = PERSON_AND_ORGANIZATION_ROLE ( 'design_owner' ) ;
#267 = COORDINATED_UNIVERSAL_TIME_OFFSET ( 5, 0, .BEHIND. ) ;
#268 = CC_DESIGN_PERSON_AND_ORGANIZATION_ASSIGNMENT ( #270, #269, ( #273 ) ) ;
#269 = PERSON_AND_ORGANIZATION_ROLE ( 'classification_officer' ) ;
#270 = PERSON_AND_ORGANIZATION ( #288, #239 ) ;
#271 = CC_DESIGN_PERSON_AND_ORGANIZATION_ASSIGNMENT ( #240, #266, ( #290 ) ) ;
#272 = PRODUCT_DEFINITION_FORMATION_WITH_SPECIFIED_SOURCE ( 'ANY', '', #290, .NOT_KNOWN. ) ;
#273 = SECURITY_CLASSIFICATION ( '', '', #274 ) ;
#274 = SECURITY_CLASSIFICATION_LEVEL ( 'unclassified' ) ;
#275 = CC_DESIGN_PERSON_AND_ORGANIZATION_ASSIGNMENT ( #260, #276, ( #272 ) ) ;
#276 = PERSON_AND_ORGANIZATION_ROLE ( 'design_supplier' ) ;
#277 = SHAPE_DEFINITION_REPRESENTATION ( #278, #214 ) ;
#278 = PRODUCT_DEFINITION_SHAPE ( 'NONE', 'NONE',  #241 ) ;
#279 = PERSON_AND_ORGANIZATION_ROLE ( 'creator' ) ;
#280 = PERSON_AND_ORGANIZATION ( #288, #239 ) ;
#281 = LOCAL_TIME ( 12, 19, 25.00000000000000000, #282 ) ;
#282 = COORDINATED_UNIVERSAL_TIME_OFFSET ( 5, 0, .BEHIND. ) ;
#283 = APPROVAL_PERSON_ORGANIZATION ( #253, #255, #254 ) ;
#284 = APPLICATION_CONTEXT ( 'configuration controlled 3d designs of mechanical parts and assemblies' ) ;
#285 = CC_DESIGN_PERSON_AND_ORGANIZATION_ASSIGNMENT ( #280, #279, ( #241 ) ) ;
#286 = CC_DESIGN_APPROVAL ( #255, ( #241 ) ) ;
#287 = DIRECTION ( 'NONE',  ( 1.000000000000000000, 0.0000000000000000000, 0.0000000000000000000 ) ) ;
#288 = PERSON ( 'UNSPECIFIED', 'UNSPECIFIED', 'UNSPECIFIED', ('UNSPECIFIED'), ('UNSPECIFIED'), ('UNSPECIFIED') ) ;
#289 = APPLICATION_CONTEXT ( 'configuration controlled 3d designs of mechanical parts and assemblies' ) ;
#290 = PRODUCT ( '24985-E0W', '24985-E0W', '', ( #291 ) ) ;
#291 = MECHANICAL_CONTEXT ( 'NONE', #289, 'mechanical' ) ;
#292 = APPLICATION_PROTOCOL_DEFINITION ( 'international standard', 'config_control_design', 1994, #289 ) ;
#293 = VERTEX_POINT ( 'NONE', #183 ) ;
#294 = CARTESIAN_POINT ( 'NONE',  ( -12.55857864376269000, 1.537982313792428700E-015, -2.210023622486879900 ) ) ;
#295 = ADVANCED_FACE ( 'NONE', ( #182 ), #195, .T. ) ;
#296 = VERTEX_POINT ( 'NONE', #191 ) ;
#297 = EDGE_LOOP ( 'NONE', ( #300, #298, #1, #105 ) ) ;
#298 = ORIENTED_EDGE ( 'NONE', *, *, #2, .T. ) ;
#299 = EDGE_CURVE ( 'NONE', #301, #296, #138, .T. ) ;
#300 = ORIENTED_EDGE ( 'NONE', *, *, #84, .F. ) ;
#301 = VERTEX_POINT ( 'NONE', #190 ) ;
ENDSEC;
END-ISO-10303-21;
