ISO-10303-21;
HEADER;
FILE_DESCRIPTION (( 'STEP AP203' ),
    '1' );
FILE_NAME ('Web Model 34412_34414.step',
    '2017-12-19T15:36:35',
    ( '' ),
    ( '' ),
    'SwSTEP 2.0',
    'SolidWorks 2016',
    '' );
FILE_SCHEMA (( 'CONFIG_CONTROL_DESIGN' ));
ENDSEC;

DATA;
#1 = LOCAL_TIME ( 10, 36, 35.00000000000000000, #43 ) ;
#2 = CC_DESIGN_APPROVAL ( #19, ( #81 ) ) ;
#3 = CARTESIAN_POINT ( 'NONE',  ( -12.50000000000000000, 0.0000000000000000000, 1.500000000000000000 ) ) ;
#4 = COORDINATED_UNIVERSAL_TIME_OFFSET ( 5, 0, .BEHIND. ) ;
#5 = CARTESIAN_POINT ( 'NONE',  ( -12.50000000000000000, 0.0000000000000000000, 1.390914152615603700 ) ) ;
#6 = FACE_OUTER_BOUND ( 'NONE', #162, .T. ) ;
#7 = APPROVAL_STATUS ( 'not_yet_approved' ) ;
#8 = DATE_TIME_ROLE ( 'creation_date' ) ;
#9 = APPLICATION_PROTOCOL_DEFINITION ( 'international standard', 'config_control_design', 1994, #171 ) ;
#10 = PERSON_AND_ORGANIZATION ( #21, #113 ) ;
#11 = APPROVAL_ROLE ( '' ) ;
#12 = DIRECTION ( 'NONE',  ( -0.0000000000000000000, -0.0000000000000000000, -1.000000000000000000 ) ) ;
#13 = PRODUCT_RELATED_PRODUCT_CATEGORY ( 'detail', '', ( #79 ) ) ;
#14 = EDGE_CURVE ( 'NONE', #16, #35, #160, .T. ) ;
#15 = VECTOR ( 'NONE', #60, 1000.000000000000000 ) ;
#16 = VERTEX_POINT ( 'NONE', #72 ) ;
#17 = CARTESIAN_POINT ( 'NONE',  ( 0.0000000000000000000, 0.0000000000000000000, -1.500000000000000000 ) ) ;
#18 = CARTESIAN_POINT ( 'NONE',  ( 12.50000000000000000, 25.00000000000000000, 1.609085847384396800 ) ) ;
#19 = APPROVAL ( #7, 'UNSPECIFIED' ) ;
#20 = CARTESIAN_POINT ( 'NONE',  ( -12.50000000000000500, -25.00000000000000000, 1.172742457846810900 ) ) ;
#21 = PERSON ( 'UNSPECIFIED', 'UNSPECIFIED', 'UNSPECIFIED', ('UNSPECIFIED'), ('UNSPECIFIED'), ('UNSPECIFIED') ) ;
#22 = CARTESIAN_POINT ( 'NONE',  ( 0.0000000000000000000, 0.0000000000000000000, 1.500000000000000000 ) ) ;
#23 = PERSON_AND_ORGANIZATION_ROLE ( 'design_owner' ) ;
#24 = PERSON_AND_ORGANIZATION_ROLE ( 'creator' ) ;
#25 = APPROVAL ( #154, 'UNSPECIFIED' ) ;
#26 = DATE_AND_TIME ( #58, #73 ) ;
#27 = CARTESIAN_POINT ( 'NONE',  ( 0.0000000000000000000, 0.0000000000000000000, 0.0000000000000000000 ) ) ;
#28 = EDGE_CURVE ( 'NONE', #16, #44, #76, .T. ) ;
#29 = AXIS2_PLACEMENT_3D ( 'NONE', #17, #38, #152 ) ;
#30 = DIRECTION ( 'NONE',  ( 1.000000000000000000, 0.0000000000000000000, 0.0000000000000000000 ) ) ;
#31 =( BOUNDED_CURVE ( )  B_SPLINE_CURVE ( 3, ( #153, #103, #18, #120 ),
 .UNSPECIFIED., .F., .F. ) 
 B_SPLINE_CURVE_WITH_KNOTS ( ( 4, 4 ),
 ( 1.570796326794896600, 4.712388980384689700 ),
 .UNSPECIFIED. ) 
 CURVE ( )  GEOMETRIC_REPRESENTATION_ITEM ( )  RATIONAL_B_SPLINE_CURVE ( ( 1.000000000000000000, 0.3333333333333333700, 0.3333333333333333700, 1.000000000000000000 ) ) 
 REPRESENTATION_ITEM ( '' )  );
#32 = AXIS2_PLACEMENT_3D ( 'NONE', #41, #52, #30 ) ;
#33 = ADVANCED_FACE ( 'NONE', ( #117 ), #137, .F. ) ;
#34 = ORIENTED_EDGE ( 'NONE', *, *, #159, .F. ) ;
#35 = VERTEX_POINT ( 'NONE', #156 ) ;
#36 = EDGE_CURVE ( 'NONE', #40, #35, #158, .T. ) ;
#37 = PLANE ( 'NONE',  #29 ) ;
#38 = DIRECTION ( 'NONE',  ( 0.0000000000000000000, 0.0000000000000000000, 1.000000000000000000 ) ) ;
#39 = AXIS2_PLACEMENT_3D ( 'NONE', #22, #138, #51 ) ;
#40 = VERTEX_POINT ( 'NONE', #75 ) ;
#41 = CARTESIAN_POINT ( 'NONE',  ( 0.0000000000000000000, 0.0000000000000000000, -1.500000000000000000 ) ) ;
#42 = PERSON_AND_ORGANIZATION ( #21, #113 ) ;
#43 = COORDINATED_UNIVERSAL_TIME_OFFSET ( 5, 0, .BEHIND. ) ;
#44 = VERTEX_POINT ( 'NONE', #134 ) ;
#45 = LOCAL_TIME ( 10, 36, 35.00000000000000000, #4 ) ;
#46 =( GEOMETRIC_REPRESENTATION_CONTEXT ( 3 ) GLOBAL_UNCERTAINTY_ASSIGNED_CONTEXT ( ( #161 ) ) GLOBAL_UNIT_ASSIGNED_CONTEXT ( ( #50, #95, #78 ) ) REPRESENTATION_CONTEXT ( 'NONE', 'WORKASPACE' ) );
#47 = ORIENTED_EDGE ( 'NONE', *, *, #170, .F. ) ;
#48 = APPROVAL_PERSON_ORGANIZATION ( #42, #19, #66 ) ;
#49 = CARTESIAN_POINT ( 'NONE',  ( 0.0000000000000000000, 0.0000000000000000000, -1.500000000000000000 ) ) ;
#50 =( LENGTH_UNIT ( ) NAMED_UNIT ( * ) SI_UNIT ( .MILLI., .METRE. ) );
#51 = DIRECTION ( 'NONE',  ( -1.000000000000000000, 0.0000000000000000000, 0.0000000000000000000 ) ) ;
#52 = DIRECTION ( 'NONE',  ( 0.0000000000000000000, 0.0000000000000000000, 1.000000000000000000 ) ) ;
#53 = CALENDAR_DATE ( 2017, 19, 12 ) ;
#54 = CYLINDRICAL_SURFACE ( 'NONE', #110, 12.50000000000000000 ) ;
#55 = SECURITY_CLASSIFICATION_LEVEL ( 'unclassified' ) ;
#56 = LINE ( 'NONE', #3, #15 ) ;
#57 = AXIS2_PLACEMENT_3D ( 'NONE', #27, #80, #65 ) ;
#58 = CALENDAR_DATE ( 2017, 19, 12 ) ;
#59 = CYLINDRICAL_SURFACE ( 'NONE', #39, 12.50000000000000000 ) ;
#60 = DIRECTION ( 'NONE',  ( -0.0000000000000000000, -0.0000000000000000000, -1.000000000000000000 ) ) ;
#61 = DIRECTION ( 'NONE',  ( 0.0000000000000000000, 0.9999619230641713100, 0.008726535498366855300 ) ) ;
#62 = ORIENTED_EDGE ( 'NONE', *, *, #170, .T. ) ;
#63 = PRODUCT_DEFINITION ( 'UNKNOWN', '', #81, #142 ) ;
#64 = ORIENTED_EDGE ( 'NONE', *, *, #148, .T. ) ;
#65 = DIRECTION ( 'NONE',  ( 1.000000000000000000, 0.0000000000000000000, 0.0000000000000000000 ) ) ;
#66 = APPROVAL_ROLE ( '' ) ;
#67 = APPROVAL_PERSON_ORGANIZATION ( #124, #25, #11 ) ;
#68 = PERSON_AND_ORGANIZATION ( #21, #113 ) ;
#69 = ORIENTED_EDGE ( 'NONE', *, *, #36, .F. ) ;
#70 = APPROVAL ( #108, 'UNSPECIFIED' ) ;
#71 = ADVANCED_FACE ( 'NONE', ( #77 ), #37, .F. ) ;
#72 = CARTESIAN_POINT ( 'NONE',  ( 12.50000000000000000, 1.530808498934191500E-015, 1.390914152615603700 ) ) ;
#73 = LOCAL_TIME ( 10, 36, 35.00000000000000000, #135 ) ;
#74 = PERSON_AND_ORGANIZATION ( #21, #113 ) ;
#75 = CARTESIAN_POINT ( 'NONE',  ( -12.50000000000000000, 0.0000000000000000000, -1.500000000000000000 ) ) ;
#76 =( BOUNDED_CURVE ( )  B_SPLINE_CURVE ( 3, ( #119, #163, #20, #5 ),
 .UNSPECIFIED., .F., .T. ) 
 B_SPLINE_CURVE_WITH_KNOTS ( ( 4, 4 ),
 ( 4.712388980384689700, 7.853981633974482800 ),
 .UNSPECIFIED. ) 
 CURVE ( )  GEOMETRIC_REPRESENTATION_ITEM ( )  RATIONAL_B_SPLINE_CURVE ( ( 1.000000000000000000, 0.3333333333333333700, 0.3333333333333333700, 1.000000000000000000 ) ) 
 REPRESENTATION_ITEM ( '' )  );
#77 = FACE_OUTER_BOUND ( 'NONE', #86, .T. ) ;
#78 =( NAMED_UNIT ( * ) SI_UNIT ( $, .STERADIAN. ) SOLID_ANGLE_UNIT ( ) );
#79 = PRODUCT ( 'Web Model 34412_34414', 'Web Model 34412_34414', '', ( #169 ) ) ;
#80 = DIRECTION ( 'NONE',  ( 0.0000000000000000000, 0.0000000000000000000, 1.000000000000000000 ) ) ;
#81 = PRODUCT_DEFINITION_FORMATION_WITH_SPECIFIED_SOURCE ( 'ANY', '', #79, .NOT_KNOWN. ) ;
#82 = APPLICATION_CONTEXT ( 'configuration controlled 3d designs of mechanical parts and assemblies' ) ;
#83 = AXIS2_PLACEMENT_3D ( 'NONE', #49, #121, #94 ) ;
#84 = PERSON_AND_ORGANIZATION_ROLE ( 'classification_officer' ) ;
#85 = DATE_AND_TIME ( #147, #164 ) ;
#86 = EDGE_LOOP ( 'NONE', ( #69, #47 ) ) ;
#87 = PRODUCT_DEFINITION_SHAPE ( 'NONE', 'NONE',  #63 ) ;
#88 = PERSON_AND_ORGANIZATION ( #21, #113 ) ;
#89 = CC_DESIGN_APPROVAL ( #70, ( #63 ) ) ;
#90 = SECURITY_CLASSIFICATION ( '', '', #55 ) ;
#91 = DIRECTION ( 'NONE',  ( 0.0000000000000000000, 0.008726535498366857000, -0.9999619230641714200 ) ) ;
#92 = ORIENTED_EDGE ( 'NONE', *, *, #28, .T. ) ;
#93 = AXIS2_PLACEMENT_3D ( 'NONE', #133, #91, #61 ) ;
#94 = DIRECTION ( 'NONE',  ( 1.000000000000000000, 0.0000000000000000000, 0.0000000000000000000 ) ) ;
#95 =( NAMED_UNIT ( * ) PLANE_ANGLE_UNIT ( ) SI_UNIT ( $, .RADIAN. ) );
#96 = DATE_TIME_ROLE ( 'classification_date' ) ;
#97 = CARTESIAN_POINT ( 'NONE',  ( 12.50000000000000000, 1.530808498934191500E-015, 1.500000000000000000 ) ) ;
#98 = CC_DESIGN_PERSON_AND_ORGANIZATION_ASSIGNMENT ( #175, #84, ( #90 ) ) ;
#99 = CC_DESIGN_PERSON_AND_ORGANIZATION_ASSIGNMENT ( #68, #23, ( #79 ) ) ;
#100 = APPROVAL_DATE_TIME ( #26, #25 ) ;
#101 = CLOSED_SHELL ( 'NONE', ( #174, #130, #71, #33 ) ) ;
#102 = CC_DESIGN_DATE_AND_TIME_ASSIGNMENT ( #150, #96, ( #90 ) ) ;
#103 = CARTESIAN_POINT ( 'NONE',  ( -12.50000000000000500, 25.00000000000000000, 1.609085847384396800 ) ) ;
#104 = DIRECTION ( 'NONE',  ( -1.000000000000000000, 0.0000000000000000000, 0.0000000000000000000 ) ) ;
#105 = LOCAL_TIME ( 10, 36, 35.00000000000000000, #172 ) ;
#106 = ORIENTED_EDGE ( 'NONE', *, *, #14, .T. ) ;
#107 = DIRECTION ( 'NONE',  ( -0.0000000000000000000, -0.0000000000000000000, -1.000000000000000000 ) ) ;
#108 = APPROVAL_STATUS ( 'not_yet_approved' ) ;
#109 = SHAPE_DEFINITION_REPRESENTATION ( #87, #149 ) ;
#110 = AXIS2_PLACEMENT_3D ( 'NONE', #165, #107, #104 ) ;
#111 = PERSON_AND_ORGANIZATION_ROLE ( 'design_supplier' ) ;
#112 = MANIFOLD_SOLID_BREP ( 'Cut-Extrude1', #101 ) ;
#113 = ORGANIZATION ( 'UNSPECIFIED', 'UNSPECIFIED', '' ) ;
#114 = CC_DESIGN_SECURITY_CLASSIFICATION ( #90, ( #81 ) ) ;
#115 = ORIENTED_EDGE ( 'NONE', *, *, #14, .F. ) ;
#116 = DATE_AND_TIME ( #144, #45 ) ;
#117 = FACE_OUTER_BOUND ( 'NONE', #129, .T. ) ;
#118 = CC_DESIGN_PERSON_AND_ORGANIZATION_ASSIGNMENT ( #88, #111, ( #81 ) ) ;
#119 = CARTESIAN_POINT ( 'NONE',  ( 12.50000000000000000, 1.530808498934191500E-015, 1.390914152615603700 ) ) ;
#120 = CARTESIAN_POINT ( 'NONE',  ( 12.50000000000000000, 1.530808498934191500E-015, 1.390914152615603700 ) ) ;
#121 = DIRECTION ( 'NONE',  ( 0.0000000000000000000, 0.0000000000000000000, 1.000000000000000000 ) ) ;
#122 = APPROVAL_DATE_TIME ( #85, #70 ) ;
#123 = APPROVAL_DATE_TIME ( #151, #19 ) ;
#124 = PERSON_AND_ORGANIZATION ( #21, #113 ) ;
#125 = COORDINATED_UNIVERSAL_TIME_OFFSET ( 5, 0, .BEHIND. ) ;
#126 = ORIENTED_EDGE ( 'NONE', *, *, #148, .F. ) ;
#127 = FACE_OUTER_BOUND ( 'NONE', #166, .T. ) ;
#128 = PERSON_AND_ORGANIZATION_ROLE ( 'creator' ) ;
#129 = EDGE_LOOP ( 'NONE', ( #34, #155 ) ) ;
#130 = ADVANCED_FACE ( 'NONE', ( #127 ), #54, .T. ) ;
#131 = ORIENTED_EDGE ( 'NONE', *, *, #159, .T. ) ;
#132 = CALENDAR_DATE ( 2017, 19, 12 ) ;
#133 = CARTESIAN_POINT ( 'NONE',  ( -12.50000000000000000, 12.50000000000000000, 1.500000000000000000 ) ) ;
#134 = CARTESIAN_POINT ( 'NONE',  ( -12.50000000000000000, 0.0000000000000000000, 1.390914152615603700 ) ) ;
#135 = COORDINATED_UNIVERSAL_TIME_OFFSET ( 5, 0, .BEHIND. ) ;
#136 = CC_DESIGN_PERSON_AND_ORGANIZATION_ASSIGNMENT ( #139, #128, ( #63 ) ) ;
#137 = PLANE ( 'NONE',  #93 ) ;
#138 = DIRECTION ( 'NONE',  ( -0.0000000000000000000, -0.0000000000000000000, -1.000000000000000000 ) ) ;
#139 = PERSON_AND_ORGANIZATION ( #21, #113 ) ;
#140 = CC_DESIGN_DATE_AND_TIME_ASSIGNMENT ( #116, #8, ( #63 ) ) ;
#141 = APPLICATION_PROTOCOL_DEFINITION ( 'international standard', 'config_control_design', 1994, #82 ) ;
#142 = DESIGN_CONTEXT ( 'detailed design', #171, 'design' ) ;
#143 = APPROVAL_ROLE ( '' ) ;
#144 = CALENDAR_DATE ( 2017, 19, 12 ) ;
#145 = VECTOR ( 'NONE', #12, 1000.000000000000000 ) ;
#146 = CC_DESIGN_PERSON_AND_ORGANIZATION_ASSIGNMENT ( #10, #24, ( #81 ) ) ;
#147 = CALENDAR_DATE ( 2017, 19, 12 ) ;
#148 = EDGE_CURVE ( 'NONE', #44, #40, #56, .T. ) ;
#149 = ADVANCED_BREP_SHAPE_REPRESENTATION ( 'Web Model 34412_34414', ( #112, #57 ), #46 ) ;
#150 = DATE_AND_TIME ( #53, #105 ) ;
#151 = DATE_AND_TIME ( #132, #1 ) ;
#152 = DIRECTION ( 'NONE',  ( 1.000000000000000000, 0.0000000000000000000, -0.0000000000000000000 ) ) ;
#153 = CARTESIAN_POINT ( 'NONE',  ( -12.50000000000000000, 0.0000000000000000000, 1.390914152615603700 ) ) ;
#154 = APPROVAL_STATUS ( 'not_yet_approved' ) ;
#155 = ORIENTED_EDGE ( 'NONE', *, *, #28, .F. ) ;
#156 = CARTESIAN_POINT ( 'NONE',  ( 12.50000000000000000, 1.530808498934191500E-015, -1.500000000000000000 ) ) ;
#157 = APPROVAL_PERSON_ORGANIZATION ( #74, #70, #143 ) ;
#158 = CIRCLE ( 'NONE', #83, 12.50000000000000000 ) ;
#159 = EDGE_CURVE ( 'NONE', #44, #16, #31, .T. ) ;
#160 = LINE ( 'NONE', #97, #145 ) ;
#161 = UNCERTAINTY_MEASURE_WITH_UNIT (LENGTH_MEASURE( 1.000000000000000100E-005 ), #50, 'distance_accuracy_value', 'NONE');
#162 = EDGE_LOOP ( 'NONE', ( #131, #106, #62, #126 ) ) ;
#163 = CARTESIAN_POINT ( 'NONE',  ( 12.50000000000001100, -25.00000000000000000, 1.172742457846810900 ) ) ;
#164 = LOCAL_TIME ( 10, 36, 35.00000000000000000, #125 ) ;
#165 = CARTESIAN_POINT ( 'NONE',  ( 0.0000000000000000000, 0.0000000000000000000, 1.500000000000000000 ) ) ;
#166 = EDGE_LOOP ( 'NONE', ( #115, #92, #64, #168 ) ) ;
#167 = CC_DESIGN_APPROVAL ( #25, ( #90 ) ) ;
#168 = ORIENTED_EDGE ( 'NONE', *, *, #36, .T. ) ;
#169 = MECHANICAL_CONTEXT ( 'NONE', #82, 'mechanical' ) ;
#170 = EDGE_CURVE ( 'NONE', #35, #40, #173, .T. ) ;
#171 = APPLICATION_CONTEXT ( 'configuration controlled 3d designs of mechanical parts and assemblies' ) ;
#172 = COORDINATED_UNIVERSAL_TIME_OFFSET ( 5, 0, .BEHIND. ) ;
#173 = CIRCLE ( 'NONE', #32, 12.50000000000000000 ) ;
#174 = ADVANCED_FACE ( 'NONE', ( #6 ), #59, .T. ) ;
#175 = PERSON_AND_ORGANIZATION ( #21, #113 ) ;
ENDSEC;
END-ISO-10303-21;
