ISO-10303-21;
HEADER;
FILE_DESCRIPTION (( 'STEP AP203' ),
    '1' );
FILE_NAME ('4313-E0W.STEP',
    '2015-06-17T20:44:04',
    ( 'admin' ),
    ( '' ),
    'SwSTEP 2.0',
    'SolidWorks 2014',
    '' );
FILE_SCHEMA (( 'CONFIG_CONTROL_DESIGN' ));
ENDSEC;

DATA;
#1 = EDGE_CURVE ( 'NONE', #305, #317, #57, .T. ) ;
#2 = AXIS2_PLACEMENT_3D ( 'NONE', #307, #149, #237 ) ;
#3 = LOCAL_TIME ( 16, 44, 4.000000000000000000, #246 ) ;
#4 = ORIENTED_EDGE ( 'NONE', *, *, #170, .T. ) ;
#5 = ORIENTED_EDGE ( 'NONE', *, *, #241, .T. ) ;
#6 =( NAMED_UNIT ( * ) PLANE_ANGLE_UNIT ( ) SI_UNIT ( $, .RADIAN. ) );
#7 = CARTESIAN_POINT ( 'NONE',  ( -6.349999999999999600, 7.776507174585692200E-016, -0.6402783984680166000 ) ) ;
#8 = DIRECTION ( 'NONE',  ( -1.000000000000000000, 0.0000000000000000000, 0.0000000000000000000 ) ) ;
#9 = DIRECTION ( 'NONE',  ( 1.000000000000000000, 0.0000000000000000000, 0.0000000000000000000 ) ) ;
#10 = FACE_OUTER_BOUND ( 'NONE', #53, .T. ) ;
#11 = ORGANIZATION ( 'UNSPECIFIED', 'UNSPECIFIED', '' ) ;
#12 = EDGE_CURVE ( 'NONE', #230, #264, #229, .T. ) ;
#13 = CARTESIAN_POINT ( 'NONE',  ( 0.0000000000000000000, 0.0000000000000000000, -0.6402783984680166000 ) ) ;
#14 = ORIENTED_EDGE ( 'NONE', *, *, #261, .F. ) ;
#15 = VERTEX_POINT ( 'NONE', #330 ) ;
#16 = CARTESIAN_POINT ( 'NONE',  ( 0.0000000000000000000, 0.0000000000000000000, -34.85000000000000100 ) ) ;
#17 = DATE_AND_TIME ( #168, #281 ) ;
#18 = ORIENTED_EDGE ( 'NONE', *, *, #362, .T. ) ;
#19 = AXIS2_PLACEMENT_3D ( 'NONE', #13, #243, #329 ) ;
#20 = CONICAL_SURFACE ( 'NONE', #2, 6.349999999999999600, 0.6974802540786397800 ) ;
#21 = CARTESIAN_POINT ( 'NONE',  ( 0.0000000000000000000, 0.0000000000000000000, -34.85000000000000100 ) ) ;
#22 = ORIENTED_EDGE ( 'NONE', *, *, #362, .F. ) ;
#23 = ADVANCED_FACE ( 'NONE', ( #164 ), #123, .T. ) ;
#24 = PERSON_AND_ORGANIZATION_ROLE ( 'classification_officer' ) ;
#25 = EDGE_LOOP ( 'NONE', ( #22, #5, #110, #289 ) ) ;
#26 = ORIENTED_EDGE ( 'NONE', *, *, #254, .F. ) ;
#27 = CARTESIAN_POINT ( 'NONE',  ( 0.0000000000000000000, 0.0000000000000000000, 1.450000000000000000 ) ) ;
#28 = DIRECTION ( 'NONE',  ( 0.6422884361886809200, 0.0000000000000000000, 0.7664630224207157300 ) ) ;
#29 = AXIS2_PLACEMENT_3D ( 'NONE', #16, #87, #165 ) ;
#30 = COORDINATED_UNIVERSAL_TIME_OFFSET ( 5, 0, .BEHIND. ) ;
#31 = LINE ( 'NONE', #7, #97 ) ;
#32 = COORDINATED_UNIVERSAL_TIME_OFFSET ( 5, 0, .BEHIND. ) ;
#33 = DIRECTION ( 'NONE',  ( 0.6422884361886899200, 7.865764775078380900E-017, -0.7664630224207083000 ) ) ;
#34 = EDGE_LOOP ( 'NONE', ( #113, #350, #360, #161, #14 ) ) ;
#35 = PERSON_AND_ORGANIZATION ( #276, #11 ) ;
#36 = DIRECTION ( 'NONE',  ( -1.000000000000000000, 1.224646799147353200E-016, 0.0000000000000000000 ) ) ;
#37 = ORIENTED_EDGE ( 'NONE', *, *, #12, .F. ) ;
#38 = DIRECTION ( 'NONE',  ( -1.000000000000000000, 0.0000000000000000000, 0.0000000000000000000 ) ) ;
#39 = VECTOR ( 'NONE', #28, 1000.000000000000200 ) ;
#40 = ORIENTED_EDGE ( 'NONE', *, *, #78, .T. ) ;
#41 = CARTESIAN_POINT ( 'NONE',  ( -6.349999999999999600, 7.776507174585692200E-016, 0.6402783984680235900 ) ) ;
#42 = VERTEX_POINT ( 'NONE', #272 ) ;
#43 = AXIS2_PLACEMENT_3D ( 'NONE', #274, #46, #45 ) ;
#44 = APPLICATION_PROTOCOL_DEFINITION ( 'international standard', 'config_control_design', 1994, #74 ) ;
#45 = DIRECTION ( 'NONE',  ( -1.000000000000000000, 0.0000000000000000000, 0.0000000000000000000 ) ) ;
#46 = DIRECTION ( 'NONE',  ( 0.0000000000000000000, 0.0000000000000000000, -1.000000000000000000 ) ) ;
#47 = AXIS2_PLACEMENT_3D ( 'NONE', #49, #50, #328 ) ;
#48 = APPROVAL_ROLE ( '' ) ;
#49 = CARTESIAN_POINT ( 'NONE',  ( 0.0000000000000000000, 0.0000000000000000000, 34.85000000000000100 ) ) ;
#50 = DIRECTION ( 'NONE',  ( -1.000000000000000000, 0.0000000000000000000, 0.0000000000000000000 ) ) ;
#51 = EDGE_CURVE ( 'NONE', #76, #230, #31, .T. ) ;
#52 = ORIENTED_EDGE ( 'NONE', *, *, #1, .F. ) ;
#53 = EDGE_LOOP ( 'NONE', ( #210, #217, #302, #60 ) ) ;
#54 = ADVANCED_FACE ( 'NONE', ( #266 ), #207, .T. ) ;
#55 = ORIENTED_EDGE ( 'NONE', *, *, #278, .T. ) ;
#56 = DIRECTION ( 'NONE',  ( -0.0000000000000000000, -0.0000000000000000000, 1.000000000000000000 ) ) ;
#57 = CIRCLE ( 'NONE', #121, 6.104708720142772500 ) ;
#58 = EDGE_CURVE ( 'NONE', #15, #194, #322, .T. ) ;
#59 = PERSON_AND_ORGANIZATION ( #276, #11 ) ;
#60 = ORIENTED_EDGE ( 'NONE', *, *, #186, .F. ) ;
#61 = DIRECTION ( 'NONE',  ( -0.0000000000000000000, -0.0000000000000000000, 1.000000000000000000 ) ) ;
#62 = CALENDAR_DATE ( 2015, 17, 6 ) ;
#63 = CARTESIAN_POINT ( 'NONE',  ( 0.0000000000000000000, 2.222733940452445900E-015, -1.450000000000000000 ) ) ;
#64 = DIRECTION ( 'NONE',  ( -1.000000000000000000, 0.0000000000000000000, 0.0000000000000000000 ) ) ;
#65 = CIRCLE ( 'NONE', #29, 36.29999999999999000 ) ;
#66 = PERSON_AND_ORGANIZATION ( #276, #11 ) ;
#67 = EDGE_CURVE ( 'NONE', #264, #42, #334, .T. ) ;
#68 = CC_DESIGN_PERSON_AND_ORGANIZATION_ASSIGNMENT ( #59, #277, ( #308 ) ) ;
#69 = CARTESIAN_POINT ( 'NONE',  ( 0.0000000000000000000, 0.0000000000000000000, 0.9329922091796671900 ) ) ;
#70 = AXIS2_PLACEMENT_3D ( 'NONE', #314, #342, #38 ) ;
#71 = AXIS2_PLACEMENT_3D ( 'NONE', #344, #64, #226 ) ;
#72 = SECURITY_CLASSIFICATION_LEVEL ( 'unclassified' ) ;
#73 = PRODUCT_DEFINITION ( 'UNKNOWN', '', #308, #296 ) ;
#74 = APPLICATION_CONTEXT ( 'configuration controlled 3d designs of mechanical parts and assemblies' ) ;
#75 = APPLICATION_CONTEXT ( 'configuration controlled 3d designs of mechanical parts and assemblies' ) ;
#76 = VERTEX_POINT ( 'NONE', #215 ) ;
#77 = PERSON_AND_ORGANIZATION ( #276, #11 ) ;
#78 = EDGE_CURVE ( 'NONE', #126, #194, #234, .T. ) ;
#79 = CLOSED_SHELL ( 'NONE', ( #54, #285, #258, #227, #23, #162, #310, #106, #134, #365 ) ) ;
#80 = AXIS2_PLACEMENT_3D ( 'NONE', #99, #36, #183 ) ;
#81 = CC_DESIGN_APPROVAL ( #122, ( #308 ) ) ;
#82 = SHAPE_DEFINITION_REPRESENTATION ( #145, #364 ) ;
#83 = CIRCLE ( 'NONE', #112, 6.104708720142772500 ) ;
#84 = ORIENTED_EDGE ( 'NONE', *, *, #341, .F. ) ;
#85 = ORIENTED_EDGE ( 'NONE', *, *, #140, .F. ) ;
#86 = APPROVAL ( #182, 'UNSPECIFIED' ) ;
#87 = DIRECTION ( 'NONE',  ( 1.000000000000000000, -0.0000000000000000000, 0.0000000000000000000 ) ) ;
#88 = CYLINDRICAL_SURFACE ( 'NONE', #114, 6.349999999999999600 ) ;
#89 = APPROVAL_ROLE ( '' ) ;
#90 = DIRECTION ( 'NONE',  ( -1.000000000000000000, 0.0000000000000000000, 0.0000000000000000000 ) ) ;
#91 = APPROVAL_PERSON_ORGANIZATION ( #77, #166, #157 ) ;
#92 = DIRECTION ( 'NONE',  ( -1.000000000000000000, 0.0000000000000000000, 0.0000000000000000000 ) ) ;
#93 = DIRECTION ( 'NONE',  ( 0.0000000000000000000, 0.0000000000000000000, -1.000000000000000000 ) ) ;
#94 = DIRECTION ( 'NONE',  ( -0.0000000000000000000, -0.0000000000000000000, 1.000000000000000000 ) ) ;
#95 = CIRCLE ( 'NONE', #204, 6.104708720142772500 ) ;
#96 = CARTESIAN_POINT ( 'NONE',  ( 6.349999999999999600, 0.0000000000000000000, 1.450000000000000000 ) ) ;
#97 = VECTOR ( 'NONE', #137, 1000.000000000000200 ) ;
#98 = LINE ( 'NONE', #96, #340 ) ;
#99 = CARTESIAN_POINT ( 'NONE',  ( 0.0000000000000000000, 0.0000000000000000000, 34.85000000000000100 ) ) ;
#100 = ORIENTED_EDGE ( 'NONE', *, *, #268, .T. ) ;
#101 = DIRECTION ( 'NONE',  ( 1.000000000000000000, 0.0000000000000000000, 0.0000000000000000000 ) ) ;
#102 = EDGE_CURVE ( 'NONE', #305, #159, #65, .T. ) ;
#103 = DIRECTION ( 'NONE',  ( -0.6422884361886899200, 0.0000000000000000000, -0.7664630224207083000 ) ) ;
#104 = DATE_TIME_ROLE ( 'creation_date' ) ;
#105 = EDGE_CURVE ( 'NONE', #142, #230, #188, .T. ) ;
#106 = ADVANCED_FACE ( 'NONE', ( #249 ), #294, .T. ) ;
#107 = DATE_AND_TIME ( #150, #3 ) ;
#108 = DIRECTION ( 'NONE',  ( -1.000000000000000000, 0.0000000000000000000, 0.0000000000000000000 ) ) ;
#109 = CARTESIAN_POINT ( 'NONE',  ( -6.349999999999999600, 7.776507174585692200E-016, 1.450000000000000000 ) ) ;
#110 = ORIENTED_EDGE ( 'NONE', *, *, #140, .T. ) ;
#111 = DIRECTION ( 'NONE',  ( 1.000000000000000000, 0.0000000000000000000, 0.0000000000000000000 ) ) ;
#112 = AXIS2_PLACEMENT_3D ( 'NONE', #366, #93, #345 ) ;
#113 = ORIENTED_EDGE ( 'NONE', *, *, #51, .F. ) ;
#114 = AXIS2_PLACEMENT_3D ( 'NONE', #333, #61, #353 ) ;
#115 = CARTESIAN_POINT ( 'NONE',  ( 0.0000000000000000000, 0.0000000000000000000, -0.6402783984680166000 ) ) ;
#116 = PERSON_AND_ORGANIZATION_ROLE ( 'design_supplier' ) ;
#117 = CARTESIAN_POINT ( 'NONE',  ( 0.0000000000000000000, 0.0000000000000000000, -34.85000000000000100 ) ) ;
#118 = DATE_TIME_ROLE ( 'classification_date' ) ;
#119 = CC_DESIGN_PERSON_AND_ORGANIZATION_ASSIGNMENT ( #253, #335, ( #73 ) ) ;
#120 = DIRECTION ( 'NONE',  ( -0.0000000000000000000, -0.0000000000000000000, 1.000000000000000000 ) ) ;
#121 = AXIS2_PLACEMENT_3D ( 'NONE', #255, #94, #90 ) ;
#122 = APPROVAL ( #312, 'UNSPECIFIED' ) ;
#123 = SPHERICAL_SURFACE ( 'NONE', #265, 36.29999999999999700 ) ;
#124 = ORIENTED_EDGE ( 'NONE', *, *, #147, .T. ) ;
#125 = ORIENTED_EDGE ( 'NONE', *, *, #67, .F. ) ;
#126 = VERTEX_POINT ( 'NONE', #63 ) ;
#127 = DIRECTION ( 'NONE',  ( 1.000000000000000000, 0.0000000000000000000, 0.0000000000000000000 ) ) ;
#128 = COORDINATED_UNIVERSAL_TIME_OFFSET ( 5, 0, .BEHIND. ) ;
#129 = EDGE_LOOP ( 'NONE', ( #250, #293, #144, #200, #309 ) ) ;
#130 = DIRECTION ( 'NONE',  ( 0.0000000000000000000, 0.0000000000000000000, -1.000000000000000000 ) ) ;
#131 = CC_DESIGN_PERSON_AND_ORGANIZATION_ASSIGNMENT ( #66, #24, ( #151 ) ) ;
#132 = VECTOR ( 'NONE', #103, 1000.000000000000000 ) ;
#133 = DATE_AND_TIME ( #62, #141 ) ;
#134 = ADVANCED_FACE ( 'NONE', ( #152 ), #359, .T. ) ;
#135 = PERSON_AND_ORGANIZATION ( #276, #11 ) ;
#136 = CIRCLE ( 'NONE', #70, 6.104708720142772500 ) ;
#137 = DIRECTION ( 'NONE',  ( -0.6422884361886809200, 7.865764775078270000E-017, 0.7664630224207157300 ) ) ;
#138 = EDGE_LOOP ( 'NONE', ( #26, #40, #4, #167 ) ) ;
#139 = CARTESIAN_POINT ( 'NONE',  ( 6.349999999999999600, 0.0000000000000000000, -0.6402783984680166000 ) ) ;
#140 = EDGE_CURVE ( 'NONE', #349, #305, #136, .T. ) ;
#141 = LOCAL_TIME ( 16, 44, 4.000000000000000000, #361 ) ;
#142 = VERTEX_POINT ( 'NONE', #251 ) ;
#143 = AXIS2_PLACEMENT_3D ( 'NONE', #262, #130, #202 ) ;
#144 = ORIENTED_EDGE ( 'NONE', *, *, #147, .F. ) ;
#145 = PRODUCT_DEFINITION_SHAPE ( 'NONE', 'NONE',  #73 ) ;
#146 = DIRECTION ( 'NONE',  ( -1.000000000000000000, 0.0000000000000000000, 0.0000000000000000000 ) ) ;
#147 = EDGE_CURVE ( 'NONE', #317, #158, #283, .T. ) ;
#148 = PERSON_AND_ORGANIZATION ( #276, #11 ) ;
#149 = DIRECTION ( 'NONE',  ( -0.0000000000000000000, -0.0000000000000000000, 1.000000000000000000 ) ) ;
#150 = CALENDAR_DATE ( 2015, 17, 6 ) ;
#151 = SECURITY_CLASSIFICATION ( '', '', #72 ) ;
#152 = FACE_OUTER_BOUND ( 'NONE', #34, .T. ) ;
#153 = LOCAL_TIME ( 16, 44, 4.000000000000000000, #128 ) ;
#154 = CC_DESIGN_DATE_AND_TIME_ASSIGNMENT ( #107, #104, ( #73 ) ) ;
#155 = DIRECTION ( 'NONE',  ( -0.0000000000000000000, -0.0000000000000000000, 1.000000000000000000 ) ) ;
#156 = LINE ( 'NONE', #332, #132 ) ;
#157 = APPROVAL_ROLE ( '' ) ;
#158 = VERTEX_POINT ( 'NONE', #176 ) ;
#159 = VERTEX_POINT ( 'NONE', #175 ) ;
#160 = AXIS2_PLACEMENT_3D ( 'NONE', #69, #357, #8 ) ;
#161 = ORIENTED_EDGE ( 'NONE', *, *, #201, .T. ) ;
#162 = ADVANCED_FACE ( 'NONE', ( #263 ), #316, .T. ) ;
#163 = EDGE_LOOP ( 'NONE', ( #206, #124, #18, #192 ) ) ;
#164 = FACE_OUTER_BOUND ( 'NONE', #163, .T. ) ;
#165 = DIRECTION ( 'NONE',  ( 0.0000000000000000000, 0.0000000000000000000, -1.000000000000000000 ) ) ;
#166 = APPROVAL ( #346, 'UNSPECIFIED' ) ;
#167 = ORIENTED_EDGE ( 'NONE', *, *, #341, .T. ) ;
#168 = CALENDAR_DATE ( 2015, 17, 6 ) ;
#169 = ORIENTED_EDGE ( 'NONE', *, *, #78, .F. ) ;
#170 = EDGE_CURVE ( 'NONE', #194, #76, #83, .T. ) ;
#171 = CARTESIAN_POINT ( 'NONE',  ( 0.0000000000000000000, 0.0000000000000000000, 0.0000000000000000000 ) ) ;
#172 = DIRECTION ( 'NONE',  ( -0.0000000000000000000, -0.0000000000000000000, 1.000000000000000000 ) ) ;
#173 = CC_DESIGN_DATE_AND_TIME_ASSIGNMENT ( #363, #118, ( #151 ) ) ;
#174 = CIRCLE ( 'NONE', #287, 6.104708720142772500 ) ;
#175 = CARTESIAN_POINT ( 'NONE',  ( 0.0000000000000000000, 2.222733940452445900E-015, 1.450000000000000000 ) ) ;
#176 = CARTESIAN_POINT ( 'NONE',  ( -7.476111993849776300E-016, -6.104708720142768100, 0.9329922091796671900 ) ) ;
#177 = APPROVAL_DATE_TIME ( #133, #122 ) ;
#178 = DIRECTION ( 'NONE',  ( 0.0000000000000000000, 0.0000000000000000000, -1.000000000000000000 ) ) ;
#179 = APPLICATION_PROTOCOL_DEFINITION ( 'international standard', 'config_control_design', 1994, #75 ) ;
#180 = CARTESIAN_POINT ( 'NONE',  ( 0.0000000000000000000, 0.0000000000000000000, 0.6402783984680235900 ) ) ;
#181 = APPROVAL_PERSON_ORGANIZATION ( #35, #86, #48 ) ;
#182 = APPROVAL_STATUS ( 'not_yet_approved' ) ;
#183 = DIRECTION ( 'NONE',  ( -1.224646799147353200E-016, -1.000000000000000000, 0.0000000000000000000 ) ) ;
#184 = APPROVAL_PERSON_ORGANIZATION ( #148, #122, #89 ) ;
#185 = VERTEX_POINT ( 'NONE', #327 ) ;
#186 = EDGE_CURVE ( 'NONE', #142, #42, #98, .T. ) ;
#187 = CIRCLE ( 'NONE', #197, 6.349999999999999600 ) ;
#188 = CIRCLE ( 'NONE', #288, 6.349999999999999600 ) ;
#189 = EDGE_LOOP ( 'NONE', ( #84, #236, #267, #212, #225 ) ) ;
#190 = CARTESIAN_POINT ( 'NONE',  ( -7.476111993849776300E-016, -6.104708720142768100, -0.9329922091796671900 ) ) ;
#191 = AXIS2_PLACEMENT_3D ( 'NONE', #231, #178, #235 ) ;
#192 = ORIENTED_EDGE ( 'NONE', *, *, #102, .F. ) ;
#193 = LINE ( 'NONE', #139, #39 ) ;
#194 = VERTEX_POINT ( 'NONE', #190 ) ;
#195 = MANIFOLD_SOLID_BREP ( '4313-001-1-solid1', #79 ) ;
#196 = CYLINDRICAL_SURFACE ( 'NONE', #323, 6.349999999999999600 ) ;
#197 = AXIS2_PLACEMENT_3D ( 'NONE', #180, #336, #319 ) ;
#198 = ORIENTED_EDGE ( 'NONE', *, *, #186, .T. ) ;
#199 = LOCAL_TIME ( 16, 44, 4.000000000000000000, #32 ) ;
#200 = ORIENTED_EDGE ( 'NONE', *, *, #347, .T. ) ;
#201 = EDGE_CURVE ( 'NONE', #15, #142, #193, .T. ) ;
#202 = DIRECTION ( 'NONE',  ( -1.000000000000000000, 0.0000000000000000000, 0.0000000000000000000 ) ) ;
#203 = DIRECTION ( 'NONE',  ( 0.0000000000000000000, 0.0000000000000000000, -1.000000000000000000 ) ) ;
#204 = AXIS2_PLACEMENT_3D ( 'NONE', #304, #279, #291 ) ;
#205 = FACE_OUTER_BOUND ( 'NONE', #189, .T. ) ;
#206 = ORIENTED_EDGE ( 'NONE', *, *, #1, .T. ) ;
#207 = CONICAL_SURFACE ( 'NONE', #43, 6.104708720142773400, 0.6974802540786514400 ) ;
#208 = APPROVAL_DATE_TIME ( #17, #86 ) ;
#209 = APPROVAL_DATE_TIME ( #356, #166 ) ;
#210 = ORIENTED_EDGE ( 'NONE', *, *, #105, .T. ) ;
#211 = UNCERTAINTY_MEASURE_WITH_UNIT (LENGTH_MEASURE( 1.000000000000000100E-005 ), #271, 'distance_accuracy_value', 'NONE');
#212 = ORIENTED_EDGE ( 'NONE', *, *, #201, .F. ) ;
#213 = DIRECTION ( 'NONE',  ( 1.000000000000000000, 0.0000000000000000000, 0.0000000000000000000 ) ) ;
#214 = CONICAL_SURFACE ( 'NONE', #191, 6.104708720142773400, 0.6974802540786514400 ) ;
#215 = CARTESIAN_POINT ( 'NONE',  ( -6.104708720142772500, 7.626309584217737700E-016, -0.9329922091796671900 ) ) ;
#216 = ORIENTED_EDGE ( 'NONE', *, *, #347, .F. ) ;
#217 = ORIENTED_EDGE ( 'NONE', *, *, #12, .T. ) ;
#218 = DIRECTION ( 'NONE',  ( 0.0000000000000000000, 0.0000000000000000000, -1.000000000000000000 ) ) ;
#219 = ORIENTED_EDGE ( 'NONE', *, *, #58, .T. ) ;
#220 = CARTESIAN_POINT ( 'NONE',  ( -6.349999999999999600, 7.776507174585692200E-016, -0.6402783984680166000 ) ) ;
#221 = CARTESIAN_POINT ( 'NONE',  ( 6.104708720142772500, 7.626309584217737700E-016, 0.9329922091796671900 ) ) ;
#222 = DIRECTION ( 'NONE',  ( 1.000000000000000000, 0.0000000000000000000, 0.0000000000000000000 ) ) ;
#223 = CC_DESIGN_PERSON_AND_ORGANIZATION_ASSIGNMENT ( #135, #275, ( #315 ) ) ;
#224 = AXIS2_PLACEMENT_3D ( 'NONE', #269, #240, #101 ) ;
#225 = ORIENTED_EDGE ( 'NONE', *, *, #331, .F. ) ;
#226 = DIRECTION ( 'NONE',  ( 0.0000000000000000000, 1.000000000000000000, 0.0000000000000000000 ) ) ;
#227 = ADVANCED_FACE ( 'NONE', ( #10 ), #196, .T. ) ;
#228 = CARTESIAN_POINT ( 'NONE',  ( 0.0000000000000000000, 0.0000000000000000000, 0.9329922091796671900 ) ) ;
#229 = LINE ( 'NONE', #109, #354 ) ;
#230 = VERTEX_POINT ( 'NONE', #220 ) ;
#231 = CARTESIAN_POINT ( 'NONE',  ( 0.0000000000000000000, 0.0000000000000000000, 0.9329922091796671900 ) ) ;
#232 = AXIS2_PLACEMENT_3D ( 'NONE', #297, #56, #213 ) ;
#233 = CIRCLE ( 'NONE', #343, 36.29999999999999700 ) ;
#234 = CIRCLE ( 'NONE', #80, 36.29999999999999700 ) ;
#235 = DIRECTION ( 'NONE',  ( -1.000000000000000000, 0.0000000000000000000, 0.0000000000000000000 ) ) ;
#236 = ORIENTED_EDGE ( 'NONE', *, *, #51, .T. ) ;
#237 = DIRECTION ( 'NONE',  ( 1.000000000000000000, 0.0000000000000000000, 0.0000000000000000000 ) ) ;
#238 = AXIS2_PLACEMENT_3D ( 'NONE', #171, #270, #111 ) ;
#239 = CARTESIAN_POINT ( 'NONE',  ( -6.104708720142772500, 0.0000000000000000000, 0.9329922091796671900 ) ) ;
#240 = DIRECTION ( 'NONE',  ( 0.0000000000000000000, 0.0000000000000000000, -1.000000000000000000 ) ) ;
#241 = EDGE_CURVE ( 'NONE', #158, #349, #325, .T. ) ;
#242 = CARTESIAN_POINT ( 'NONE',  ( 0.0000000000000000000, 0.0000000000000000000, -34.85000000000000100 ) ) ;
#243 = DIRECTION ( 'NONE',  ( -0.0000000000000000000, -0.0000000000000000000, 1.000000000000000000 ) ) ;
#244 = AXIS2_PLACEMENT_3D ( 'NONE', #242, #252, #355 ) ;
#245 = FACE_OUTER_BOUND ( 'NONE', #129, .T. ) ;
#246 = COORDINATED_UNIVERSAL_TIME_OFFSET ( 5, 0, .BEHIND. ) ;
#247 = EDGE_LOOP ( 'NONE', ( #85, #100, #125, #216, #52 ) ) ;
#248 = CARTESIAN_POINT ( 'NONE',  ( 0.0000000000000000000, 0.0000000000000000000, 34.85000000000000100 ) ) ;
#249 = FACE_OUTER_BOUND ( 'NONE', #260, .T. ) ;
#250 = ORIENTED_EDGE ( 'NONE', *, *, #268, .F. ) ;
#251 = CARTESIAN_POINT ( 'NONE',  ( 6.349999999999999600, 0.0000000000000000000, -0.6402783984680166000 ) ) ;
#252 = DIRECTION ( 'NONE',  ( -1.000000000000000000, 1.224646799147353200E-016, 0.0000000000000000000 ) ) ;
#253 = PERSON_AND_ORGANIZATION ( #276, #11 ) ;
#254 = EDGE_CURVE ( 'NONE', #126, #185, #233, .T. ) ;
#255 = CARTESIAN_POINT ( 'NONE',  ( 0.0000000000000000000, 0.0000000000000000000, 0.9329922091796671900 ) ) ;
#256 = CARTESIAN_POINT ( 'NONE',  ( 0.0000000000000000000, 0.0000000000000000000, -0.9329922091796671900 ) ) ;
#257 = VECTOR ( 'NONE', #33, 1000.000000000000000 ) ;
#258 = ADVANCED_FACE ( 'NONE', ( #367 ), #339, .T. ) ;
#259 = DIRECTION ( 'NONE',  ( 0.0000000000000000000, 1.000000000000000000, 0.0000000000000000000 ) ) ;
#260 = EDGE_LOOP ( 'NONE', ( #169, #311, #313, #219 ) ) ;
#261 = EDGE_CURVE ( 'NONE', #230, #142, #321, .T. ) ;
#262 = CARTESIAN_POINT ( 'NONE',  ( 0.0000000000000000000, 0.0000000000000000000, 0.6402783984680235900 ) ) ;
#263 = FACE_OUTER_BOUND ( 'NONE', #25, .T. ) ;
#264 = VERTEX_POINT ( 'NONE', #41 ) ;
#265 = AXIS2_PLACEMENT_3D ( 'NONE', #117, #108, #259 ) ;
#266 = FACE_OUTER_BOUND ( 'NONE', #247, .T. ) ;
#267 = ORIENTED_EDGE ( 'NONE', *, *, #105, .F. ) ;
#268 = EDGE_CURVE ( 'NONE', #349, #42, #324, .T. ) ;
#269 = CARTESIAN_POINT ( 'NONE',  ( 0.0000000000000000000, 0.0000000000000000000, -0.9329922091796671900 ) ) ;
#270 = DIRECTION ( 'NONE',  ( 0.0000000000000000000, 0.0000000000000000000, 1.000000000000000000 ) ) ;
#271 =( LENGTH_UNIT ( ) NAMED_UNIT ( * ) SI_UNIT ( .MILLI., .METRE. ) );
#272 = CARTESIAN_POINT ( 'NONE',  ( 6.349999999999999600, 0.0000000000000000000, 0.6402783984680235900 ) ) ;
#273 = CC_DESIGN_APPROVAL ( #166, ( #151 ) ) ;
#274 = CARTESIAN_POINT ( 'NONE',  ( 0.0000000000000000000, 0.0000000000000000000, 0.9329922091796671900 ) ) ;
#275 = PERSON_AND_ORGANIZATION_ROLE ( 'design_owner' ) ;
#276 = PERSON ( 'UNSPECIFIED', 'UNSPECIFIED', 'UNSPECIFIED', ('UNSPECIFIED'), ('UNSPECIFIED'), ('UNSPECIFIED') ) ;
#277 = PERSON_AND_ORGANIZATION_ROLE ( 'creator' ) ;
#278 = EDGE_CURVE ( 'NONE', #42, #264, #187, .T. ) ;
#279 = DIRECTION ( 'NONE',  ( 0.0000000000000000000, 0.0000000000000000000, -1.000000000000000000 ) ) ;
#280 = DIRECTION ( 'NONE',  ( 0.0000000000000000000, 1.000000000000000000, 0.0000000000000000000 ) ) ;
#281 = LOCAL_TIME ( 16, 44, 4.000000000000000000, #30 ) ;
#282 = MECHANICAL_CONTEXT ( 'NONE', #74, 'mechanical' ) ;
#283 = CIRCLE ( 'NONE', #160, 6.104708720142772500 ) ;
#284 = ORIENTED_EDGE ( 'NONE', *, *, #261, .T. ) ;
#285 = ADVANCED_FACE ( 'NONE', ( #205 ), #20, .T. ) ;
#286 = EDGE_LOOP ( 'NONE', ( #37, #284, #198, #55 ) ) ;
#287 = AXIS2_PLACEMENT_3D ( 'NONE', #256, #218, #9 ) ;
#288 = AXIS2_PLACEMENT_3D ( 'NONE', #115, #155, #222 ) ;
#289 = ORIENTED_EDGE ( 'NONE', *, *, #102, .T. ) ;
#290 = CC_DESIGN_APPROVAL ( #86, ( #73 ) ) ;
#291 = DIRECTION ( 'NONE',  ( 1.000000000000000000, 0.0000000000000000000, 0.0000000000000000000 ) ) ;
#292 = FACE_OUTER_BOUND ( 'NONE', #286, .T. ) ;
#293 = ORIENTED_EDGE ( 'NONE', *, *, #241, .F. ) ;
#294 = SPHERICAL_SURFACE ( 'NONE', #47, 36.29999999999999700 ) ;
#295 = DIRECTION ( 'NONE',  ( -0.0000000000000000000, -0.0000000000000000000, 1.000000000000000000 ) ) ;
#296 = DESIGN_CONTEXT ( 'detailed design', #75, 'design' ) ;
#297 = CARTESIAN_POINT ( 'NONE',  ( 0.0000000000000000000, 0.0000000000000000000, -0.6402783984680166000 ) ) ;
#298 = CC_DESIGN_PERSON_AND_ORGANIZATION_ASSIGNMENT ( #300, #116, ( #308 ) ) ;
#299 = DIRECTION ( 'NONE',  ( 1.000000000000000000, 0.0000000000000000000, 0.0000000000000000000 ) ) ;
#300 = PERSON_AND_ORGANIZATION ( #276, #11 ) ;
#301 = CALENDAR_DATE ( 2015, 17, 6 ) ;
#302 = ORIENTED_EDGE ( 'NONE', *, *, #67, .T. ) ;
#303 = AXIS2_PLACEMENT_3D ( 'NONE', #21, #92, #280 ) ;
#304 = CARTESIAN_POINT ( 'NONE',  ( 0.0000000000000000000, 0.0000000000000000000, -0.9329922091796671900 ) ) ;
#305 = VERTEX_POINT ( 'NONE', #306 ) ;
#306 = CARTESIAN_POINT ( 'NONE',  ( 0.0000000000000000000, 6.104708720142768100, 0.9329922091796671900 ) ) ;
#307 = CARTESIAN_POINT ( 'NONE',  ( 0.0000000000000000000, 0.0000000000000000000, -0.6402783984680166000 ) ) ;
#308 = PRODUCT_DEFINITION_FORMATION_WITH_SPECIFIED_SOURCE ( 'ANY', '', #315, .NOT_KNOWN. ) ;
#309 = ORIENTED_EDGE ( 'NONE', *, *, #278, .F. ) ;
#310 = ADVANCED_FACE ( 'NONE', ( #292 ), #88, .T. ) ;
#311 = ORIENTED_EDGE ( 'NONE', *, *, #254, .T. ) ;
#312 = APPROVAL_STATUS ( 'not_yet_approved' ) ;
#313 = ORIENTED_EDGE ( 'NONE', *, *, #331, .T. ) ;
#314 = CARTESIAN_POINT ( 'NONE',  ( 0.0000000000000000000, 0.0000000000000000000, 0.9329922091796671900 ) ) ;
#315 = PRODUCT ( '4313-E0W', '4313-E0W', '', ( #282 ) ) ;
#316 = SPHERICAL_SURFACE ( 'NONE', #303, 36.29999999999999700 ) ;
#317 = VERTEX_POINT ( 'NONE', #239 ) ;
#318 = CARTESIAN_POINT ( 'NONE',  ( 6.104708720142773400, 7.476111993849782200E-016, 0.9329922091796671900 ) ) ;
#319 = DIRECTION ( 'NONE',  ( -1.000000000000000000, 0.0000000000000000000, 0.0000000000000000000 ) ) ;
#320 = CC_DESIGN_SECURITY_CLASSIFICATION ( #151, ( #308 ) ) ;
#321 = CIRCLE ( 'NONE', #19, 6.349999999999999600 ) ;
#322 = CIRCLE ( 'NONE', #224, 6.104708720142772500 ) ;
#323 = AXIS2_PLACEMENT_3D ( 'NONE', #27, #172, #299 ) ;
#324 = LINE ( 'NONE', #318, #257 ) ;
#325 = CIRCLE ( 'NONE', #358, 6.104708720142772500 ) ;
#326 =( GEOMETRIC_REPRESENTATION_CONTEXT ( 3 ) GLOBAL_UNCERTAINTY_ASSIGNED_CONTEXT ( ( #211 ) ) GLOBAL_UNIT_ASSIGNED_CONTEXT ( ( #271, #6, #351 ) ) REPRESENTATION_CONTEXT ( 'NONE', 'WORKASPACE' ) );
#327 = CARTESIAN_POINT ( 'NONE',  ( 0.0000000000000000000, 6.104708720142768100, -0.9329922091796671900 ) ) ;
#328 = DIRECTION ( 'NONE',  ( 0.0000000000000000000, 1.000000000000000000, 0.0000000000000000000 ) ) ;
#329 = DIRECTION ( 'NONE',  ( 1.000000000000000000, 0.0000000000000000000, 0.0000000000000000000 ) ) ;
#330 = CARTESIAN_POINT ( 'NONE',  ( 6.104708720142772500, 0.0000000000000000000, -0.9329922091796671900 ) ) ;
#331 = EDGE_CURVE ( 'NONE', #185, #15, #95, .T. ) ;
#332 = CARTESIAN_POINT ( 'NONE',  ( -6.104708720142773400, 0.0000000000000000000, 0.9329922091796671900 ) ) ;
#333 = CARTESIAN_POINT ( 'NONE',  ( 0.0000000000000000000, 0.0000000000000000000, 1.450000000000000000 ) ) ;
#334 = CIRCLE ( 'NONE', #143, 6.349999999999999600 ) ;
#335 = PERSON_AND_ORGANIZATION_ROLE ( 'creator' ) ;
#336 = DIRECTION ( 'NONE',  ( 0.0000000000000000000, 0.0000000000000000000, -1.000000000000000000 ) ) ;
#337 = CALENDAR_DATE ( 2015, 17, 6 ) ;
#338 = PRODUCT_RELATED_PRODUCT_CATEGORY ( 'detail', '', ( #315 ) ) ;
#339 = SPHERICAL_SURFACE ( 'NONE', #71, 36.29999999999999700 ) ;
#340 = VECTOR ( 'NONE', #295, 1000.000000000000000 ) ;
#341 = EDGE_CURVE ( 'NONE', #76, #185, #174, .T. ) ;
#342 = DIRECTION ( 'NONE',  ( -0.0000000000000000000, -0.0000000000000000000, 1.000000000000000000 ) ) ;
#343 = AXIS2_PLACEMENT_3D ( 'NONE', #248, #127, #203 ) ;
#344 = CARTESIAN_POINT ( 'NONE',  ( 0.0000000000000000000, 0.0000000000000000000, 34.85000000000000100 ) ) ;
#345 = DIRECTION ( 'NONE',  ( 1.000000000000000000, 0.0000000000000000000, 0.0000000000000000000 ) ) ;
#346 = APPROVAL_STATUS ( 'not_yet_approved' ) ;
#347 = EDGE_CURVE ( 'NONE', #317, #264, #156, .T. ) ;
#348 = DIRECTION ( 'NONE',  ( -0.0000000000000000000, -0.0000000000000000000, 1.000000000000000000 ) ) ;
#349 = VERTEX_POINT ( 'NONE', #221 ) ;
#350 = ORIENTED_EDGE ( 'NONE', *, *, #170, .F. ) ;
#351 =( NAMED_UNIT ( * ) SI_UNIT ( $, .STERADIAN. ) SOLID_ANGLE_UNIT ( ) );
#352 = CIRCLE ( 'NONE', #244, 36.29999999999999700 ) ;
#353 = DIRECTION ( 'NONE',  ( 1.000000000000000000, 0.0000000000000000000, 0.0000000000000000000 ) ) ;
#354 = VECTOR ( 'NONE', #348, 1000.000000000000000 ) ;
#355 = DIRECTION ( 'NONE',  ( -1.224646799147353200E-016, -1.000000000000000000, 0.0000000000000000000 ) ) ;
#356 = DATE_AND_TIME ( #301, #199 ) ;
#357 = DIRECTION ( 'NONE',  ( -0.0000000000000000000, -0.0000000000000000000, 1.000000000000000000 ) ) ;
#358 = AXIS2_PLACEMENT_3D ( 'NONE', #228, #120, #146 ) ;
#359 = CONICAL_SURFACE ( 'NONE', #232, 6.349999999999999600, 0.6974802540786397800 ) ;
#360 = ORIENTED_EDGE ( 'NONE', *, *, #58, .F. ) ;
#361 = COORDINATED_UNIVERSAL_TIME_OFFSET ( 5, 0, .BEHIND. ) ;
#362 = EDGE_CURVE ( 'NONE', #158, #159, #352, .T. ) ;
#363 = DATE_AND_TIME ( #337, #153 ) ;
#364 = ADVANCED_BREP_SHAPE_REPRESENTATION ( '4313-E0W', ( #195, #238 ), #326 ) ;
#365 = ADVANCED_FACE ( 'NONE', ( #245 ), #214, .T. ) ;
#366 = CARTESIAN_POINT ( 'NONE',  ( 0.0000000000000000000, 0.0000000000000000000, -0.9329922091796671900 ) ) ;
#367 = FACE_OUTER_BOUND ( 'NONE', #138, .T. ) ;
ENDSEC;
END-ISO-10303-21;
