ISO-10303-21;
HEADER;
FILE_DESCRIPTION (( 'STEP AP214' ),
    '1' );
FILE_NAME ('4466-E0W.STEP',
    '2009-12-21T17:02:37',
    ( ' ' ),
    ( ' ' ),
    'SwSTEP 2.0',
    'SolidWorks 2009',
    '' );
FILE_SCHEMA (( 'AUTOMOTIVE_DESIGN' ));
ENDSEC;

DATA;
#1 = EDGE_LOOP ( 'NONE', ( #51, #54, #57, #40 ) ) ;
#2 = ORIENTED_EDGE ( 'NONE', *, *, #6, .T. ) ;
#3 = VERTEX_POINT ( 'NONE', #73 ) ;
#4 = EDGE_CURVE ( 'NONE', #25, #20, #74, .T. ) ;
#5 = MANIFOLD_SOLID_BREP ( 'NONE', #44 ) ;
#6 = EDGE_CURVE ( 'NONE', #25, #3, #82, .T. ) ;
#7 = ORIENTED_EDGE ( 'NONE', *, *, #4, .F. ) ;
#8 = EDGE_CURVE ( 'NONE', #56, #20, #91, .T. ) ;
#9 = ORIENTED_EDGE ( 'NONE', *, *, #8, .T. ) ;
#10 = ORIENTED_EDGE ( 'NONE', *, *, #18, .T. ) ;
#11 = VERTEX_POINT ( 'NONE', #102 ) ;
#12 = EDGE_LOOP ( 'NONE', ( #13, #9, #46, #53 ) ) ;
#13 = ORIENTED_EDGE ( 'NONE', *, *, #38, .F. ) ;
#14 = ADVANCED_FACE ( 'NONE', ( #100 ), #108, .T. ) ;
#15 = ADVANCED_FACE ( 'NONE', ( #119 ), #132, .T. ) ;
#16 = EDGE_LOOP ( 'NONE', ( #2, #10, #62, #47, #7 ) ) ;
#17 =( NAMED_UNIT ( * ) PLANE_ANGLE_UNIT ( ) SI_UNIT ( $, .RADIAN. ) );
#18 = EDGE_CURVE ( 'NONE', #3, #11, #130, .T. ) ;
#19 =( NAMED_UNIT ( * ) SI_UNIT ( $, .STERADIAN. ) SOLID_ANGLE_UNIT ( ) );
#20 = VERTEX_POINT ( 'NONE', #126 ) ;
#21 = EDGE_CURVE ( 'NONE', #20, #64, #30, .T. ) ;
#22 =( NAMED_UNIT ( * ) SI_UNIT ( $, .STERADIAN. ) SOLID_ANGLE_UNIT ( ) );
#23 = DIRECTION ( 'NONE',  ( 1.000000000000000000, 0.0000000000000000000, 0.0000000000000000000 ) ) ;
#24 = MECHANICAL_DESIGN_GEOMETRIC_PRESENTATION_REPRESENTATION (  '', ( #110 ), #33 ) ;
#25 = VERTEX_POINT ( 'NONE', #214 ) ;
#26 =( LENGTH_UNIT ( ) NAMED_UNIT ( * ) SI_UNIT ( .MILLI., .METRE. ) );
#27 = DIRECTION ( 'NONE',  ( 1.000000000000000000, 0.0000000000000000000, 0.0000000000000000000 ) ) ;
#28 = UNCERTAINTY_MEASURE_WITH_UNIT (LENGTH_MEASURE( 1.000000000000000100E-005 ), #95, 'distance_accuracy_value', 'NONE');
#29 =( GEOMETRIC_REPRESENTATION_CONTEXT ( 3 ) GLOBAL_UNCERTAINTY_ASSIGNED_CONTEXT ( ( #28 ) ) GLOBAL_UNIT_ASSIGNED_CONTEXT ( ( #95, #101, #22 ) ) REPRESENTATION_CONTEXT ( 'NONE', 'WORKASPACE' ) );
#30 = CIRCLE ( 'NONE', #31, 37.50000000000000000 ) ;
#31 = AXIS2_PLACEMENT_3D ( 'NONE', #32, #35, #27 ) ;
#32 = CARTESIAN_POINT ( 'NONE',  ( 0.0000000000000000000, 0.0000000000000000000, -6.606274810554420900 ) ) ;
#33 =( GEOMETRIC_REPRESENTATION_CONTEXT ( 3 ) GLOBAL_UNCERTAINTY_ASSIGNED_CONTEXT ( ( #34 ) ) GLOBAL_UNIT_ASSIGNED_CONTEXT ( ( #26, #17, #19 ) ) REPRESENTATION_CONTEXT ( 'NONE', 'WORKASPACE' ) );
#34 = UNCERTAINTY_MEASURE_WITH_UNIT (LENGTH_MEASURE( 1.000000000000000100E-005 ), #26, 'distance_accuracy_value', 'NONE');
#35 = DIRECTION ( 'NONE',  ( -0.0000000000000000000, -0.0000000000000000000, 1.000000000000000000 ) ) ;
#36 = ORIENTED_EDGE ( 'NONE', *, *, #55, .F. ) ;
#37 = ORIENTED_EDGE ( 'NONE', *, *, #6, .F. ) ;
#38 = EDGE_CURVE ( 'NONE', #56, #39, #139, .T. ) ;
#39 = VERTEX_POINT ( 'NONE', #136 ) ;
#40 = ORIENTED_EDGE ( 'NONE', *, *, #61, .F. ) ;
#41 = ORIENTED_EDGE ( 'NONE', *, *, #4, .T. ) ;
#42 = EDGE_LOOP ( 'NONE', ( #37, #48 ) ) ;
#43 = ADVANCED_FACE ( 'NONE', ( #135 ), #232, .F. ) ;
#44 = CLOSED_SHELL ( 'NONE', ( #50, #15, #14, #49, #43 ) ) ;
#45 = ORIENTED_EDGE ( 'NONE', *, *, #8, .F. ) ;
#46 = ORIENTED_EDGE ( 'NONE', *, *, #21, .T. ) ;
#47 = ORIENTED_EDGE ( 'NONE', *, *, #21, .F. ) ;
#48 = ORIENTED_EDGE ( 'NONE', *, *, #59, .F. ) ;
#49 = ADVANCED_FACE ( 'NONE', ( #230 ), #165, .T. ) ;
#50 = ADVANCED_FACE ( 'NONE', ( #163 ), #260, .T. ) ;
#51 = ORIENTED_EDGE ( 'NONE', *, *, #63, .T. ) ;
#52 = ORIENTED_EDGE ( 'NONE', *, *, #18, .F. ) ;
#53 = ORIENTED_EDGE ( 'NONE', *, *, #61, .T. ) ;
#54 = ORIENTED_EDGE ( 'NONE', *, *, #55, .T. ) ;
#55 = EDGE_CURVE ( 'NONE', #11, #56, #259, .T. ) ;
#56 = VERTEX_POINT ( 'NONE', #250 ) ;
#57 = ORIENTED_EDGE ( 'NONE', *, *, #38, .T. ) ;
#58 = ORIENTED_EDGE ( 'NONE', *, *, #59, .T. ) ;
#59 = EDGE_CURVE ( 'NONE', #3, #25, #249, .T. ) ;
#60 = EDGE_LOOP ( 'NONE', ( #52, #58, #41, #45, #36 ) ) ;
#61 = EDGE_CURVE ( 'NONE', #64, #39, #244, .T. ) ;
#62 = ORIENTED_EDGE ( 'NONE', *, *, #63, .F. ) ;
#63 = EDGE_CURVE ( 'NONE', #64, #11, #239, .T. ) ;
#64 = VERTEX_POINT ( 'NONE', #203 ) ;
#65 =( NAMED_UNIT ( * ) SI_UNIT ( $, .STERADIAN. ) SOLID_ANGLE_UNIT ( ) );
#66 = FILL_AREA_STYLE ('',( #67 ) ) ;
#67 = FILL_AREA_STYLE_COLOUR ( '', #93 ) ;
#68 = SURFACE_STYLE_USAGE ( .BOTH. , #69 ) ;
#69 = SURFACE_SIDE_STYLE ('',( #92 ) ) ;
#70 = UNCERTAINTY_MEASURE_WITH_UNIT (LENGTH_MEASURE( 1.000000000000000100E-005 ), #77, 'distance_accuracy_value', 'NONE');
#71 = CARTESIAN_POINT ( 'NONE',  ( 37.50000000000000000, 0.0000000000000000000, 4.308132045400366600 ) ) ;
#72 =( GEOMETRIC_REPRESENTATION_CONTEXT ( 3 ) GLOBAL_UNCERTAINTY_ASSIGNED_CONTEXT ( ( #70 ) ) GLOBAL_UNIT_ASSIGNED_CONTEXT ( ( #77, #79, #65 ) ) REPRESENTATION_CONTEXT ( 'NONE', 'WORKASPACE' ) );
#73 = CARTESIAN_POINT ( 'NONE',  ( -37.50000000000000000, 4.592273826833913900E-015, -9.595000000000000600 ) ) ;
#74 = LINE ( 'NONE', #71, #75 ) ;
#75 = VECTOR ( 'NONE', #76, 1000.000000000000000 ) ;
#76 = DIRECTION ( 'NONE',  ( -0.0000000000000000000, -0.0000000000000000000, 1.000000000000000000 ) ) ;
#77 =( LENGTH_UNIT ( ) NAMED_UNIT ( * ) SI_UNIT ( .MILLI., .METRE. ) );
#78 = STYLED_ITEM ( 'NONE', ( #84 ), #5 ) ;
#79 =( NAMED_UNIT ( * ) PLANE_ANGLE_UNIT ( ) SI_UNIT ( $, .RADIAN. ) );
#80 = CARTESIAN_POINT ( 'NONE',  ( 0.0000000000000000000, 0.0000000000000000000, -9.595000000000000600 ) ) ;
#81 = AXIS2_PLACEMENT_3D ( 'NONE', #80, #87, #86 ) ;
#82 = CIRCLE ( 'NONE', #81, 37.50000000000000000 ) ;
#83 = PRESENTATION_LAYER_ASSIGNMENT (  '', '', ( #78 ) ) ;
#84 = PRESENTATION_STYLE_ASSIGNMENT (( #68 ) ) ;
#85 = MECHANICAL_DESIGN_GEOMETRIC_PRESENTATION_REPRESENTATION (  '', ( #78 ), #72 ) ;
#86 = DIRECTION ( 'NONE',  ( 1.000000000000000000, 0.0000000000000000000, 0.0000000000000000000 ) ) ;
#87 = DIRECTION ( 'NONE',  ( -0.0000000000000000000, -0.0000000000000000000, 1.000000000000000000 ) ) ;
#88 = DIRECTION ( 'NONE',  ( -0.0000000000000000000, -0.0000000000000000000, 1.000000000000000000 ) ) ;
#89 = CARTESIAN_POINT ( 'NONE',  ( 0.0000000000000000000, 0.0000000000000000000, -6.606274810554420900 ) ) ;
#90 = AXIS2_PLACEMENT_3D ( 'NONE', #89, #88, #23 ) ;
#91 = CIRCLE ( 'NONE', #90, 37.50000000000000000 ) ;
#92 = SURFACE_STYLE_FILL_AREA ( #66 ) ;
#93 = COLOUR_RGB ( '',0.7960784313725489700, 0.8235294117647058400, 0.9372549019607843100 ) ;
#94 = SURFACE_STYLE_USAGE ( .BOTH. , #98 ) ;
#95 =( LENGTH_UNIT ( ) NAMED_UNIT ( * ) SI_UNIT ( .MILLI., .METRE. ) );
#96 = SURFACE_STYLE_FILL_AREA ( #103 ) ;
#97 = FILL_AREA_STYLE_COLOUR ( '', #106 ) ;
#98 = SURFACE_SIDE_STYLE ('',( #96 ) ) ;
#99 = MECHANICAL_DESIGN_GEOMETRIC_PRESENTATION_REPRESENTATION (  '', ( #104 ), #29 ) ;
#100 = FACE_OUTER_BOUND ( 'NONE', #12, .T. ) ;
#101 =( NAMED_UNIT ( * ) PLANE_ANGLE_UNIT ( ) SI_UNIT ( $, .RADIAN. ) );
#102 = CARTESIAN_POINT ( 'NONE',  ( -37.50000000000000000, 4.592273826833913900E-015, -6.606274810554420900 ) ) ;
#103 = FILL_AREA_STYLE ('',( #97 ) ) ;
#104 = STYLED_ITEM ( 'NONE', ( #105 ), #14 ) ;
#105 = PRESENTATION_STYLE_ASSIGNMENT (( #94 ) ) ;
#106 = COLOUR_RGB ( '',0.9568627450980391500, 0.9490196078431372100, 0.9607843137254902200 ) ;
#107 = PRESENTATION_LAYER_ASSIGNMENT (  '', '', ( #104 ) ) ;
#108 = SPHERICAL_SURFACE ( 'NONE', #122, 51.49999999999999300 ) ;
#109 = PRESENTATION_LAYER_ASSIGNMENT (  '', '', ( #110 ) ) ;
#110 = STYLED_ITEM ( 'NONE', ( #111 ), #15 ) ;
#111 = PRESENTATION_STYLE_ASSIGNMENT (( #112 ) ) ;
#112 = SURFACE_STYLE_USAGE ( .BOTH. , #113 ) ;
#113 = SURFACE_SIDE_STYLE ('',( #115 ) ) ;
#114 = CARTESIAN_POINT ( 'NONE',  ( 0.0000000000000000000, 0.0000000000000000000, -41.90500000000000100 ) ) ;
#115 = SURFACE_STYLE_FILL_AREA ( #116 ) ;
#116 = FILL_AREA_STYLE ('',( #117 ) ) ;
#117 = FILL_AREA_STYLE_COLOUR ( '', #118 ) ;
#118 = COLOUR_RGB ( '',0.9568627450980391500, 0.9490196078431372100, 0.9607843137254902200 ) ;
#119 = FACE_OUTER_BOUND ( 'NONE', #1, .T. ) ;
#120 = DIRECTION ( 'NONE',  ( 0.0000000000000000000, 1.000000000000000000, 0.0000000000000000000 ) ) ;
#121 = DIRECTION ( 'NONE',  ( -1.000000000000000000, 0.0000000000000000000, 0.0000000000000000000 ) ) ;
#122 = AXIS2_PLACEMENT_3D ( 'NONE', #114, #121, #120 ) ;
#123 = CARTESIAN_POINT ( 'NONE',  ( 0.0000000000000000000, 0.0000000000000000000, -41.90500000000000100 ) ) ;
#124 = AXIS2_PLACEMENT_3D ( 'NONE', #123, #125, #131 ) ;
#125 = DIRECTION ( 'NONE',  ( -1.000000000000000000, 0.0000000000000000000, 0.0000000000000000000 ) ) ;
#126 = CARTESIAN_POINT ( 'NONE',  ( 37.50000000000000000, 0.0000000000000000000, -6.606274810554420900 ) ) ;
#127 = DIRECTION ( 'NONE',  ( -0.0000000000000000000, -0.0000000000000000000, 1.000000000000000000 ) ) ;
#128 = VECTOR ( 'NONE', #127, 1000.000000000000000 ) ;
#129 = CARTESIAN_POINT ( 'NONE',  ( -37.50000000000000000, 4.592273826833913900E-015, 4.308132045400366600 ) ) ;
#130 = LINE ( 'NONE', #129, #128 ) ;
#131 = DIRECTION ( 'NONE',  ( 0.0000000000000000000, 1.000000000000000000, 0.0000000000000000000 ) ) ;
#132 = SPHERICAL_SURFACE ( 'NONE', #124, 51.49999999999999300 ) ;
#133 = DIRECTION ( 'NONE',  ( -1.000000000000000000, 1.224606353822377300E-016, 0.0000000000000000000 ) ) ;
#134 = FILL_AREA_STYLE_COLOUR ( '', #213 ) ;
#135 = FACE_OUTER_BOUND ( 'NONE', #42, .T. ) ;
#136 = CARTESIAN_POINT ( 'NONE',  ( 0.0000000000000000000, 3.153361361092621000E-015, 9.594999999999991800 ) ) ;
#137 = DIRECTION ( 'NONE',  ( -1.224606353822377300E-016, -1.000000000000000000, 0.0000000000000000000 ) ) ;
#138 = AXIS2_PLACEMENT_3D ( 'NONE', #215, #133, #137 ) ;
#139 = CIRCLE ( 'NONE', #138, 51.49999999999999300 ) ;
#140 = DIRECTION ( 'NONE',  ( 1.000000000000000000, 0.0000000000000000000, 0.0000000000000000000 ) ) ;
#141 = DIRECTION ( 'NONE',  ( 0.0000000000000000000, 0.0000000000000000000, 1.000000000000000000 ) ) ;
#142 = AXIS2_PLACEMENT_3D ( 'NONE', #202, #141, #140 ) ;
#143 =( GEOMETRIC_REPRESENTATION_CONTEXT ( 3 ) GLOBAL_UNCERTAINTY_ASSIGNED_CONTEXT ( ( #144 ) ) GLOBAL_UNIT_ASSIGNED_CONTEXT ( ( #183, #182, #145 ) ) REPRESENTATION_CONTEXT ( 'NONE', 'WORKASPACE' ) );
#144 = UNCERTAINTY_MEASURE_WITH_UNIT (LENGTH_MEASURE( 1.000000000000000100E-005 ), #183, 'distance_accuracy_value', 'NONE');
#145 =( NAMED_UNIT ( * ) SI_UNIT ( $, .STERADIAN. ) SOLID_ANGLE_UNIT ( ) );
#146 = UNCERTAINTY_MEASURE_WITH_UNIT (LENGTH_MEASURE( 1.000000000000000100E-005 ), #149, 'distance_accuracy_value', 'NONE');
#147 =( NAMED_UNIT ( * ) SI_UNIT ( $, .STERADIAN. ) SOLID_ANGLE_UNIT ( ) );
#148 =( NAMED_UNIT ( * ) PLANE_ANGLE_UNIT ( ) SI_UNIT ( $, .RADIAN. ) );
#149 =( LENGTH_UNIT ( ) NAMED_UNIT ( * ) SI_UNIT ( .MILLI., .METRE. ) );
#150 = MECHANICAL_DESIGN_GEOMETRIC_PRESENTATION_REPRESENTATION (  '', ( #152 ), #261 ) ;
#151 = PRESENTATION_LAYER_ASSIGNMENT (  '', '', ( #152 ) ) ;
#152 = STYLED_ITEM ( 'NONE', ( #153 ), #50 ) ;
#153 = PRESENTATION_STYLE_ASSIGNMENT (( #154 ) ) ;
#154 = SURFACE_STYLE_USAGE ( .BOTH. , #155 ) ;
#155 = SURFACE_SIDE_STYLE ('',( #156 ) ) ;
#156 = SURFACE_STYLE_FILL_AREA ( #157 ) ;
#157 = FILL_AREA_STYLE ('',( #164 ) ) ;
#158 = COLOUR_RGB ( '',0.9568627450980391500, 0.9490196078431372100, 0.9607843137254902200 ) ;
#159 = DIRECTION ( 'NONE',  ( 1.000000000000000000, 0.0000000000000000000, 0.0000000000000000000 ) ) ;
#160 = DIRECTION ( 'NONE',  ( -0.0000000000000000000, -0.0000000000000000000, 1.000000000000000000 ) ) ;
#161 = CARTESIAN_POINT ( 'NONE',  ( 0.0000000000000000000, 0.0000000000000000000, 4.308132045400366600 ) ) ;
#162 = AXIS2_PLACEMENT_3D ( 'NONE', #161, #160, #159 ) ;
#163 = FACE_OUTER_BOUND ( 'NONE', #16, .T. ) ;
#164 = FILL_AREA_STYLE_COLOUR ( '', #158 ) ;
#165 = CYLINDRICAL_SURFACE ( 'NONE', #162, 37.50000000000000000 ) ;
#166 =( GEOMETRIC_REPRESENTATION_CONTEXT ( 3 ) GLOBAL_UNCERTAINTY_ASSIGNED_CONTEXT ( ( #167 ) ) GLOBAL_UNIT_ASSIGNED_CONTEXT ( ( #216, #169, #168 ) ) REPRESENTATION_CONTEXT ( 'NONE', 'WORKASPACE' ) );
#167 = UNCERTAINTY_MEASURE_WITH_UNIT (LENGTH_MEASURE( 1.000000000000000100E-005 ), #216, 'distance_accuracy_value', 'NONE');
#168 =( NAMED_UNIT ( * ) SI_UNIT ( $, .STERADIAN. ) SOLID_ANGLE_UNIT ( ) );
#169 =( NAMED_UNIT ( * ) PLANE_ANGLE_UNIT ( ) SI_UNIT ( $, .RADIAN. ) );
#170 = PRODUCT_DEFINITION_SHAPE ( 'NONE', 'NONE',  #173 ) ;
#171 = PRODUCT_RELATED_PRODUCT_CATEGORY ( 'part', '', ( #177 ) ) ;
#172 = PRODUCT_DEFINITION_FORMATION_WITH_SPECIFIED_SOURCE ( 'ANY', '', #177, .NOT_KNOWN. ) ;
#173 = PRODUCT_DEFINITION ( 'UNKNOWN', '', #172, #174 ) ;
#174 = PRODUCT_DEFINITION_CONTEXT ( 'detailed design', #176, 'design' ) ;
#175 = APPLICATION_PROTOCOL_DEFINITION ( 'draft international standard', 'automotive_design', 1998, #176 ) ;
#176 = APPLICATION_CONTEXT ( 'automotive_design' ) ;
#177 = PRODUCT ( '4466-E0W', '4466-E0W', '', ( #178 ) ) ;
#178 = PRODUCT_CONTEXT ( 'NONE', #194, 'mechanical' ) ;
#179 = APPLICATION_PROTOCOL_DEFINITION ( 'draft international standard', 'automotive_design', 1998, #194 ) ;
#180 =( NAMED_UNIT ( * ) PLANE_ANGLE_UNIT ( ) SI_UNIT ( $, .RADIAN. ) );
#181 =( LENGTH_UNIT ( ) NAMED_UNIT ( * ) SI_UNIT ( .MILLI., .METRE. ) );
#182 =( NAMED_UNIT ( * ) PLANE_ANGLE_UNIT ( ) SI_UNIT ( $, .RADIAN. ) );
#183 =( LENGTH_UNIT ( ) NAMED_UNIT ( * ) SI_UNIT ( .MILLI., .METRE. ) );
#184 = MECHANICAL_DESIGN_GEOMETRIC_PRESENTATION_REPRESENTATION (  '', ( #186 ), #143 ) ;
#185 = PRESENTATION_LAYER_ASSIGNMENT (  '', '', ( #186 ) ) ;
#186 = STYLED_ITEM ( 'NONE', ( #187 ), #196 ) ;
#187 = PRESENTATION_STYLE_ASSIGNMENT (( #188 ) ) ;
#188 = SURFACE_STYLE_USAGE ( .BOTH. , #189 ) ;
#189 = SURFACE_SIDE_STYLE ('',( #190 ) ) ;
#190 = SURFACE_STYLE_FILL_AREA ( #191 ) ;
#191 = FILL_AREA_STYLE ('',( #192 ) ) ;
#192 = FILL_AREA_STYLE_COLOUR ( '', #193 ) ;
#193 = COLOUR_RGB ( '',0.7960784313725489700, 0.8235294117647058400, 0.9372549019607843100 ) ;
#194 = APPLICATION_CONTEXT ( 'automotive_design' ) ;
#195 = SHAPE_DEFINITION_REPRESENTATION ( #170, #196 ) ;
#196 = ADVANCED_BREP_SHAPE_REPRESENTATION ( '4466-E0W', ( #5, #142 ), #197 ) ;
#197 =( GEOMETRIC_REPRESENTATION_CONTEXT ( 3 ) GLOBAL_UNCERTAINTY_ASSIGNED_CONTEXT ( ( #198 ) ) GLOBAL_UNIT_ASSIGNED_CONTEXT ( ( #201, #200, #199 ) ) REPRESENTATION_CONTEXT ( 'NONE', 'WORKASPACE' ) );
#198 = UNCERTAINTY_MEASURE_WITH_UNIT (LENGTH_MEASURE( 1.000000000000000100E-005 ), #201, 'distance_accuracy_value', 'NONE');
#199 =( NAMED_UNIT ( * ) SI_UNIT ( $, .STERADIAN. ) SOLID_ANGLE_UNIT ( ) );
#200 =( NAMED_UNIT ( * ) PLANE_ANGLE_UNIT ( ) SI_UNIT ( $, .RADIAN. ) );
#201 =( LENGTH_UNIT ( ) NAMED_UNIT ( * ) SI_UNIT ( .MILLI., .METRE. ) );
#202 = CARTESIAN_POINT ( 'NONE',  ( 0.0000000000000000000, 0.0000000000000000000, 0.0000000000000000000 ) ) ;
#203 = CARTESIAN_POINT ( 'NONE',  ( 0.0000000000000000000, 37.49999999999999300, -6.606274810554422700 ) ) ;
#204 = DIRECTION ( 'NONE',  ( 1.000000000000000000, 0.0000000000000000000, 0.0000000000000000000 ) ) ;
#205 = MECHANICAL_DESIGN_GEOMETRIC_PRESENTATION_REPRESENTATION (  '', ( #207 ), #233 ) ;
#206 = PRESENTATION_LAYER_ASSIGNMENT (  '', '', ( #207 ) ) ;
#207 = STYLED_ITEM ( 'NONE', ( #208 ), #43 ) ;
#208 = PRESENTATION_STYLE_ASSIGNMENT (( #209 ) ) ;
#209 = SURFACE_STYLE_USAGE ( .BOTH. , #210 ) ;
#210 = SURFACE_SIDE_STYLE ('',( #211 ) ) ;
#211 = SURFACE_STYLE_FILL_AREA ( #212 ) ;
#212 = FILL_AREA_STYLE ('',( #134 ) ) ;
#213 = COLOUR_RGB ( '',0.9568627450980391500, 0.9490196078431372100, 0.9607843137254902200 ) ;
#214 = CARTESIAN_POINT ( 'NONE',  ( 37.50000000000000000, 0.0000000000000000000, -9.595000000000000600 ) ) ;
#215 = CARTESIAN_POINT ( 'NONE',  ( 0.0000000000000000000, 0.0000000000000000000, -41.90500000000000100 ) ) ;
#216 =( LENGTH_UNIT ( ) NAMED_UNIT ( * ) SI_UNIT ( .MILLI., .METRE. ) );
#217 = MECHANICAL_DESIGN_GEOMETRIC_PRESENTATION_REPRESENTATION (  '', ( #219 ), #166 ) ;
#218 = PRESENTATION_LAYER_ASSIGNMENT (  '', '', ( #219 ) ) ;
#219 = STYLED_ITEM ( 'NONE', ( #220 ), #49 ) ;
#220 = PRESENTATION_STYLE_ASSIGNMENT (( #221 ) ) ;
#221 = SURFACE_STYLE_USAGE ( .BOTH. , #222 ) ;
#222 = SURFACE_SIDE_STYLE ('',( #223 ) ) ;
#223 = SURFACE_STYLE_FILL_AREA ( #224 ) ;
#224 = FILL_AREA_STYLE ('',( #231 ) ) ;
#225 = COLOUR_RGB ( '',0.9568627450980391500, 0.9490196078431372100, 0.9607843137254902200 ) ;
#226 = DIRECTION ( 'NONE',  ( 1.000000000000000000, 0.0000000000000000000, 0.0000000000000000000 ) ) ;
#227 = DIRECTION ( 'NONE',  ( 0.0000000000000000000, -0.0000000000000000000, 1.000000000000000000 ) ) ;
#228 = CARTESIAN_POINT ( 'NONE',  ( 0.0000000000000000000, 3.525145811345656000E-015, -9.595000000000000600 ) ) ;
#229 = AXIS2_PLACEMENT_3D ( 'NONE', #228, #227, #226 ) ;
#230 = FACE_OUTER_BOUND ( 'NONE', #60, .T. ) ;
#231 = FILL_AREA_STYLE_COLOUR ( '', #225 ) ;
#232 = PLANE ( 'NONE',  #229 ) ;
#233 =( GEOMETRIC_REPRESENTATION_CONTEXT ( 3 ) GLOBAL_UNCERTAINTY_ASSIGNED_CONTEXT ( ( #234 ) ) GLOBAL_UNIT_ASSIGNED_CONTEXT ( ( #181, #180, #235 ) ) REPRESENTATION_CONTEXT ( 'NONE', 'WORKASPACE' ) );
#234 = UNCERTAINTY_MEASURE_WITH_UNIT (LENGTH_MEASURE( 1.000000000000000100E-005 ), #181, 'distance_accuracy_value', 'NONE');
#235 =( NAMED_UNIT ( * ) SI_UNIT ( $, .STERADIAN. ) SOLID_ANGLE_UNIT ( ) );
#236 = DIRECTION ( 'NONE',  ( -0.0000000000000000000, -0.0000000000000000000, 1.000000000000000000 ) ) ;
#237 = CARTESIAN_POINT ( 'NONE',  ( 0.0000000000000000000, 0.0000000000000000000, -6.606274810554420900 ) ) ;
#238 = AXIS2_PLACEMENT_3D ( 'NONE', #237, #236, #204 ) ;
#239 = CIRCLE ( 'NONE', #238, 37.50000000000000000 ) ;
#240 = DIRECTION ( 'NONE',  ( 0.0000000000000000000, 0.0000000000000000000, -1.000000000000000000 ) ) ;
#241 = DIRECTION ( 'NONE',  ( 1.000000000000000000, 0.0000000000000000000, 0.0000000000000000000 ) ) ;
#242 = CARTESIAN_POINT ( 'NONE',  ( 0.0000000000000000000, 0.0000000000000000000, -41.90500000000000100 ) ) ;
#243 = AXIS2_PLACEMENT_3D ( 'NONE', #242, #241, #240 ) ;
#244 = CIRCLE ( 'NONE', #243, 51.49999999999999300 ) ;
#245 = DIRECTION ( 'NONE',  ( 1.000000000000000000, 0.0000000000000000000, 0.0000000000000000000 ) ) ;
#246 = DIRECTION ( 'NONE',  ( -0.0000000000000000000, -0.0000000000000000000, 1.000000000000000000 ) ) ;
#247 = CARTESIAN_POINT ( 'NONE',  ( 0.0000000000000000000, 0.0000000000000000000, -9.595000000000000600 ) ) ;
#248 = AXIS2_PLACEMENT_3D ( 'NONE', #247, #246, #245 ) ;
#249 = CIRCLE ( 'NONE', #248, 37.50000000000000000 ) ;
#250 = CARTESIAN_POINT ( 'NONE',  ( -4.592273826833913100E-015, -37.49999999999999300, -6.606274810554422700 ) ) ;
#251 = DIRECTION ( 'NONE',  ( 1.000000000000000000, 0.0000000000000000000, 0.0000000000000000000 ) ) ;
#252 = DIRECTION ( 'NONE',  ( -0.0000000000000000000, -0.0000000000000000000, 1.000000000000000000 ) ) ;
#253 = CARTESIAN_POINT ( 'NONE',  ( 0.0000000000000000000, 0.0000000000000000000, -6.606274810554420900 ) ) ;
#254 = AXIS2_PLACEMENT_3D ( 'NONE', #253, #252, #251 ) ;
#255 = DIRECTION ( 'NONE',  ( 1.000000000000000000, 0.0000000000000000000, 0.0000000000000000000 ) ) ;
#256 = DIRECTION ( 'NONE',  ( -0.0000000000000000000, -0.0000000000000000000, 1.000000000000000000 ) ) ;
#257 = CARTESIAN_POINT ( 'NONE',  ( 0.0000000000000000000, 0.0000000000000000000, 4.308132045400366600 ) ) ;
#258 = AXIS2_PLACEMENT_3D ( 'NONE', #257, #256, #255 ) ;
#259 = CIRCLE ( 'NONE', #254, 37.50000000000000000 ) ;
#260 = CYLINDRICAL_SURFACE ( 'NONE', #258, 37.50000000000000000 ) ;
#261 =( GEOMETRIC_REPRESENTATION_CONTEXT ( 3 ) GLOBAL_UNCERTAINTY_ASSIGNED_CONTEXT ( ( #146 ) ) GLOBAL_UNIT_ASSIGNED_CONTEXT ( ( #149, #148, #147 ) ) REPRESENTATION_CONTEXT ( 'NONE', 'WORKASPACE' ) );
ENDSEC;
END-ISO-10303-21;
