ISO-10303-21;
HEADER;
FILE_DESCRIPTION (( 'STEP AP203' ),
    '1' );
FILE_NAME ('Web Model 85287_85288.step',
    '2017-05-01T20:05:32',
    ( '' ),
    ( '' ),
    'SwSTEP 2.0',
    'SolidWorks 2016',
    '' );
FILE_SCHEMA (( 'CONFIG_CONTROL_DESIGN' ));
ENDSEC;

DATA;
#1 = CARTESIAN_POINT ( 'NONE',  ( -6.350000000000001400, 6.349999999999999600, 1.000000000000000000 ) ) ;
#2 = EDGE_CURVE ( 'NONE', #230, #168, #225, .T. ) ;
#3 = PERSON_AND_ORGANIZATION ( #189, #25 ) ;
#4 = ADVANCED_FACE ( 'NONE', ( #65 ), #196, .F. ) ;
#5 = CARTESIAN_POINT ( 'NONE',  ( -6.350000000000001400, 6.349999999999999600, 1.000000000000000000 ) ) ;
#6 = PLANE ( 'NONE',  #216 ) ;
#7 = DATE_AND_TIME ( #150, #203 ) ;
#8 = ORIENTED_EDGE ( 'NONE', *, *, #41, .T. ) ;
#9 = PRODUCT_RELATED_PRODUCT_CATEGORY ( 'detail', '', ( #174 ) ) ;
#10 = ORIENTED_EDGE ( 'NONE', *, *, #11, .F. ) ;
#11 = EDGE_CURVE ( 'NONE', #230, #37, #69, .T. ) ;
#12 = EDGE_CURVE ( 'NONE', #168, #58, #32, .T. ) ;
#13 = VERTEX_POINT ( 'NONE', #231 ) ;
#14 = ORIENTED_EDGE ( 'NONE', *, *, #11, .T. ) ;
#15 = CC_DESIGN_PERSON_AND_ORGANIZATION_ASSIGNMENT ( #3, #171, ( #174 ) ) ;
#16 = COORDINATED_UNIVERSAL_TIME_OFFSET ( 5, 0, .BEHIND. ) ;
#17 = ORIENTED_EDGE ( 'NONE', *, *, #12, .T. ) ;
#18 = DATE_TIME_ROLE ( 'classification_date' ) ;
#19 = CC_DESIGN_PERSON_AND_ORGANIZATION_ASSIGNMENT ( #156, #207, ( #55 ) ) ;
#20 = ORIENTED_EDGE ( 'NONE', *, *, #98, .F. ) ;
#21 = CARTESIAN_POINT ( 'NONE',  ( 6.349999999999997900, 6.349999999999999600, 1.000000000000000000 ) ) ;
#22 = ORIENTED_EDGE ( 'NONE', *, *, #101, .F. ) ;
#23 = EDGE_LOOP ( 'NONE', ( #158, #163, #56, #108 ) ) ;
#24 = CC_DESIGN_APPROVAL ( #122, ( #55 ) ) ;
#25 = ORGANIZATION ( 'UNSPECIFIED', 'UNSPECIFIED', '' ) ;
#26 = CARTESIAN_POINT ( 'NONE',  ( -6.349999999999999600, -6.349999999999999600, -1.000000000000000000 ) ) ;
#27 = COORDINATED_UNIVERSAL_TIME_OFFSET ( 5, 0, .BEHIND. ) ;
#28 = CARTESIAN_POINT ( 'NONE',  ( 0.0000000000000000000, 0.0000000000000000000, 1.000000000000000000 ) ) ;
#29 = ADVANCED_FACE ( 'NONE', ( #67 ), #6, .F. ) ;
#30 = DIRECTION ( 'NONE',  ( -1.000000000000000000, -0.0000000000000000000, -0.0000000000000000000 ) ) ;
#31 = VECTOR ( 'NONE', #110, 1000.000000000000000 ) ;
#32 = LINE ( 'NONE', #85, #208 ) ;
#33 = PERSON_AND_ORGANIZATION ( #189, #25 ) ;
#34 = VECTOR ( 'NONE', #71, 1000.000000000000000 ) ;
#35 = CARTESIAN_POINT ( 'NONE',  ( -6.350000000000001400, 6.349999999999999600, -1.000000000000000000 ) ) ;
#36 = LINE ( 'NONE', #26, #140 ) ;
#37 = VERTEX_POINT ( 'NONE', #114 ) ;
#38 = APPROVAL_STATUS ( 'not_yet_approved' ) ;
#39 = EDGE_CURVE ( 'NONE', #37, #58, #176, .T. ) ;
#40 = LOCAL_TIME ( 16, 5, 31.00000000000000000, #88 ) ;
#41 = EDGE_CURVE ( 'NONE', #58, #151, #118, .T. ) ;
#42 = DIRECTION ( 'NONE',  ( 1.365923996832131600E-016, -1.000000000000000000, 0.0000000000000000000 ) ) ;
#43 = EDGE_CURVE ( 'NONE', #143, #151, #89, .T. ) ;
#44 = ORIENTED_EDGE ( 'NONE', *, *, #98, .T. ) ;
#45 = EDGE_CURVE ( 'NONE', #37, #143, #137, .T. ) ;
#46 = CARTESIAN_POINT ( 'NONE',  ( -6.350000000000001400, 6.349999999999999600, -1.000000000000000000 ) ) ;
#47 = CC_DESIGN_DATE_AND_TIME_ASSIGNMENT ( #7, #18, ( #119 ) ) ;
#48 = CARTESIAN_POINT ( 'NONE',  ( 6.349999999999997900, 6.349999999999999600, 1.000000000000000000 ) ) ;
#49 = ORIENTED_EDGE ( 'NONE', *, *, #43, .F. ) ;
#50 = APPROVAL_PERSON_ORGANIZATION ( #99, #126, #66 ) ;
#51 = EDGE_CURVE ( 'NONE', #151, #13, #121, .T. ) ;
#52 = LOCAL_TIME ( 16, 5, 31.00000000000000000, #102 ) ;
#53 = ORIENTED_EDGE ( 'NONE', *, *, #101, .T. ) ;
#54 = DIRECTION ( 'NONE',  ( 1.365923996832131600E-016, -1.000000000000000000, 0.0000000000000000000 ) ) ;
#55 = PRODUCT_DEFINITION_FORMATION_WITH_SPECIFIED_SOURCE ( 'ANY', '', #174, .NOT_KNOWN. ) ;
#56 = ORIENTED_EDGE ( 'NONE', *, *, #92, .F. ) ;
#57 = APPLICATION_PROTOCOL_DEFINITION ( 'international standard', 'config_control_design', 1994, #104 ) ;
#58 = VERTEX_POINT ( 'NONE', #218 ) ;
#59 = ORIENTED_EDGE ( 'NONE', *, *, #2, .T. ) ;
#60 = CLOSED_SHELL ( 'NONE', ( #29, #214, #4, #120, #100, #237 ) ) ;
#61 = DIRECTION ( 'NONE',  ( -1.365923996832131600E-016, 1.000000000000000000, 0.0000000000000000000 ) ) ;
#62 = PERSON_AND_ORGANIZATION ( #189, #25 ) ;
#63 = DIRECTION ( 'NONE',  ( -1.365923996832131600E-016, 1.000000000000000000, -0.0000000000000000000 ) ) ;
#64 = ORIENTED_EDGE ( 'NONE', *, *, #45, .F. ) ;
#65 = FACE_OUTER_BOUND ( 'NONE', #23, .T. ) ;
#66 = APPROVAL_ROLE ( '' ) ;
#67 = FACE_OUTER_BOUND ( 'NONE', #75, .T. ) ;
#68 = APPROVAL_ROLE ( '' ) ;
#69 = LINE ( 'NONE', #186, #87 ) ;
#70 = DIRECTION ( 'NONE',  ( -0.0000000000000000000, -0.0000000000000000000, -1.000000000000000000 ) ) ;
#71 = DIRECTION ( 'NONE',  ( -0.0000000000000000000, -0.0000000000000000000, -1.000000000000000000 ) ) ;
#72 = FACE_OUTER_BOUND ( 'NONE', #200, .T. ) ;
#73 =( NAMED_UNIT ( * ) SI_UNIT ( $, .STERADIAN. ) SOLID_ANGLE_UNIT ( ) );
#74 = APPROVAL_PERSON_ORGANIZATION ( #33, #122, #206 ) ;
#75 = EDGE_LOOP ( 'NONE', ( #17, #166, #10, #59 ) ) ;
#76 = CC_DESIGN_SECURITY_CLASSIFICATION ( #119, ( #55 ) ) ;
#77 = DIRECTION ( 'NONE',  ( -1.365923996832131600E-016, 1.000000000000000000, -0.0000000000000000000 ) ) ;
#78 = AXIS2_PLACEMENT_3D ( 'NONE', #5, #129, #61 ) ;
#79 = CARTESIAN_POINT ( 'NONE',  ( -6.350000000000001400, 6.349999999999999600, 1.000000000000000000 ) ) ;
#80 = CARTESIAN_POINT ( 'NONE',  ( -6.349999999999999600, -6.349999999999999600, 1.000000000000000000 ) ) ;
#81 = FACE_OUTER_BOUND ( 'NONE', #185, .T. ) ;
#82 = PLANE ( 'NONE',  #170 ) ;
#83 = CARTESIAN_POINT ( 'NONE',  ( 0.0000000000000000000, 0.0000000000000000000, -1.000000000000000000 ) ) ;
#84 = CC_DESIGN_APPROVAL ( #126, ( #226 ) ) ;
#85 = CARTESIAN_POINT ( 'NONE',  ( 6.349999999999997900, 6.349999999999999600, -1.000000000000000000 ) ) ;
#86 = EDGE_CURVE ( 'NONE', #91, #13, #179, .T. ) ;
#87 = VECTOR ( 'NONE', #77, 1000.000000000000000 ) ;
#88 = COORDINATED_UNIVERSAL_TIME_OFFSET ( 5, 0, .BEHIND. ) ;
#89 = LINE ( 'NONE', #199, #34 ) ;
#90 = CC_DESIGN_APPROVAL ( #177, ( #119 ) ) ;
#91 = VERTEX_POINT ( 'NONE', #128 ) ;
#92 = EDGE_CURVE ( 'NONE', #143, #91, #224, .T. ) ;
#93 = DIRECTION ( 'NONE',  ( -0.0000000000000000000, 0.0000000000000000000, 1.000000000000000000 ) ) ;
#94 = DATE_AND_TIME ( #136, #187 ) ;
#95 = ORIENTED_EDGE ( 'NONE', *, *, #92, .T. ) ;
#96 = DESIGN_CONTEXT ( 'detailed design', #104, 'design' ) ;
#97 = DIRECTION ( 'NONE',  ( 1.000000000000000000, 0.0000000000000000000, 0.0000000000000000000 ) ) ;
#98 = EDGE_CURVE ( 'NONE', #13, #168, #36, .T. ) ;
#99 = PERSON_AND_ORGANIZATION ( #189, #25 ) ;
#100 = ADVANCED_FACE ( 'NONE', ( #212 ), #188, .T. ) ;
#101 = EDGE_CURVE ( 'NONE', #91, #230, #172, .T. ) ;
#102 = COORDINATED_UNIVERSAL_TIME_OFFSET ( 5, 0, .BEHIND. ) ;
#103 = ORIENTED_EDGE ( 'NONE', *, *, #51, .F. ) ;
#104 = APPLICATION_CONTEXT ( 'configuration controlled 3d designs of mechanical parts and assemblies' ) ;
#105 = DIRECTION ( 'NONE',  ( 0.0000000000000000000, -0.0000000000000000000, 1.000000000000000000 ) ) ;
#106 = CC_DESIGN_PERSON_AND_ORGANIZATION_ASSIGNMENT ( #62, #215, ( #119 ) ) ;
#107 = ORIENTED_EDGE ( 'NONE', *, *, #39, .T. ) ;
#108 = ORIENTED_EDGE ( 'NONE', *, *, #43, .T. ) ;
#109 = PERSON_AND_ORGANIZATION ( #189, #25 ) ;
#110 = DIRECTION ( 'NONE',  ( 1.000000000000000000, 0.0000000000000000000, 0.0000000000000000000 ) ) ;
#111 = PLANE ( 'NONE',  #229 ) ;
#112 = AXIS2_PLACEMENT_3D ( 'NONE', #28, #146, #193 ) ;
#113 = DATE_AND_TIME ( #167, #209 ) ;
#114 = CARTESIAN_POINT ( 'NONE',  ( 6.349999999999997900, 6.349999999999999600, 1.000000000000000000 ) ) ;
#115 = CARTESIAN_POINT ( 'NONE',  ( -6.350000000000001400, 6.349999999999999600, 1.000000000000000000 ) ) ;
#116 =( GEOMETRIC_REPRESENTATION_CONTEXT ( 3 ) GLOBAL_UNCERTAINTY_ASSIGNED_CONTEXT ( ( #217 ) ) GLOBAL_UNIT_ASSIGNED_CONTEXT ( ( #138, #182, #73 ) ) REPRESENTATION_CONTEXT ( 'NONE', 'WORKASPACE' ) );
#117 = FACE_OUTER_BOUND ( 'NONE', #195, .T. ) ;
#118 = LINE ( 'NONE', #142, #154 ) ;
#119 = SECURITY_CLASSIFICATION ( '', '', #213 ) ;
#120 = ADVANCED_FACE ( 'NONE', ( #117 ), #160, .F. ) ;
#121 = LINE ( 'NONE', #46, #192 ) ;
#122 = APPROVAL ( #134, 'UNSPECIFIED' ) ;
#123 = DATE_TIME_ROLE ( 'creation_date' ) ;
#124 = VECTOR ( 'NONE', #127, 1000.000000000000000 ) ;
#125 = ORIENTED_EDGE ( 'NONE', *, *, #45, .T. ) ;
#126 = APPROVAL ( #38, 'UNSPECIFIED' ) ;
#127 = DIRECTION ( 'NONE',  ( -0.0000000000000000000, -0.0000000000000000000, -1.000000000000000000 ) ) ;
#128 = CARTESIAN_POINT ( 'NONE',  ( -6.349999999999999600, -6.349999999999999600, 1.000000000000000000 ) ) ;
#129 = DIRECTION ( 'NONE',  ( 1.000000000000000000, 1.365923996832131600E-016, -0.0000000000000000000 ) ) ;
#130 = AXIS2_PLACEMENT_3D ( 'NONE', #223, #155, #105 ) ;
#131 = PERSON_AND_ORGANIZATION ( #189, #25 ) ;
#132 = PRODUCT_DEFINITION_SHAPE ( 'NONE', 'NONE',  #226 ) ;
#133 = AXIS2_PLACEMENT_3D ( 'NONE', #159, #161, #164 ) ;
#134 = APPROVAL_STATUS ( 'not_yet_approved' ) ;
#135 = CC_DESIGN_PERSON_AND_ORGANIZATION_ASSIGNMENT ( #131, #204, ( #226 ) ) ;
#136 = CALENDAR_DATE ( 2017, 1, 5 ) ;
#137 = LINE ( 'NONE', #149, #210 ) ;
#138 =( LENGTH_UNIT ( ) NAMED_UNIT ( * ) SI_UNIT ( .MILLI., .METRE. ) );
#139 = APPROVAL_DATE_TIME ( #191, #177 ) ;
#140 = VECTOR ( 'NONE', #97, 1000.000000000000000 ) ;
#141 = ORIENTED_EDGE ( 'NONE', *, *, #86, .T. ) ;
#142 = CARTESIAN_POINT ( 'NONE',  ( -6.350000000000001400, 6.349999999999999600, -1.000000000000000000 ) ) ;
#143 = VERTEX_POINT ( 'NONE', #1 ) ;
#144 = APPLICATION_PROTOCOL_DEFINITION ( 'international standard', 'config_control_design', 1994, #147 ) ;
#145 = APPROVAL_PERSON_ORGANIZATION ( #194, #177, #68 ) ;
#146 = DIRECTION ( 'NONE',  ( -0.0000000000000000000, 0.0000000000000000000, 1.000000000000000000 ) ) ;
#147 = APPLICATION_CONTEXT ( 'configuration controlled 3d designs of mechanical parts and assemblies' ) ;
#148 = CARTESIAN_POINT ( 'NONE',  ( 6.349999999999999600, -6.349999999999999600, -1.000000000000000000 ) ) ;
#149 = CARTESIAN_POINT ( 'NONE',  ( -6.350000000000001400, 6.349999999999999600, 1.000000000000000000 ) ) ;
#150 = CALENDAR_DATE ( 2017, 1, 5 ) ;
#151 = VERTEX_POINT ( 'NONE', #35 ) ;
#152 = DIRECTION ( 'NONE',  ( -1.000000000000000000, -1.365923996832131600E-016, 0.0000000000000000000 ) ) ;
#153 = DIRECTION ( 'NONE',  ( 1.000000000000000000, 0.0000000000000000000, 0.0000000000000000000 ) ) ;
#154 = VECTOR ( 'NONE', #30, 1000.000000000000000 ) ;
#155 = DIRECTION ( 'NONE',  ( 0.0000000000000000000, 1.000000000000000000, 0.0000000000000000000 ) ) ;
#156 = PERSON_AND_ORGANIZATION ( #189, #25 ) ;
#157 = ORIENTED_EDGE ( 'NONE', *, *, #41, .F. ) ;
#158 = ORIENTED_EDGE ( 'NONE', *, *, #51, .T. ) ;
#159 = CARTESIAN_POINT ( 'NONE',  ( 0.0000000000000000000, 0.0000000000000000000, 0.0000000000000000000 ) ) ;
#160 = PLANE ( 'NONE',  #130 ) ;
#161 = DIRECTION ( 'NONE',  ( 0.0000000000000000000, 0.0000000000000000000, 1.000000000000000000 ) ) ;
#162 = SHAPE_DEFINITION_REPRESENTATION ( #132, #227 ) ;
#163 = ORIENTED_EDGE ( 'NONE', *, *, #86, .F. ) ;
#164 = DIRECTION ( 'NONE',  ( 1.000000000000000000, 0.0000000000000000000, 0.0000000000000000000 ) ) ;
#165 = CARTESIAN_POINT ( 'NONE',  ( 6.349999999999999600, -6.349999999999999600, 1.000000000000000000 ) ) ;
#166 = ORIENTED_EDGE ( 'NONE', *, *, #39, .F. ) ;
#167 = CALENDAR_DATE ( 2017, 1, 5 ) ;
#168 = VERTEX_POINT ( 'NONE', #148 ) ;
#169 = MECHANICAL_CONTEXT ( 'NONE', #147, 'mechanical' ) ;
#170 = AXIS2_PLACEMENT_3D ( 'NONE', #115, #173, #201 ) ;
#171 = PERSON_AND_ORGANIZATION_ROLE ( 'design_owner' ) ;
#172 = LINE ( 'NONE', #80, #31 ) ;
#173 = DIRECTION ( 'NONE',  ( 0.0000000000000000000, -1.000000000000000000, 0.0000000000000000000 ) ) ;
#174 = PRODUCT ( 'Web Model 85287_85288', 'Web Model 85287_85288', '', ( #169 ) ) ;
#175 = CC_DESIGN_PERSON_AND_ORGANIZATION_ASSIGNMENT ( #109, #211, ( #55 ) ) ;
#176 = LINE ( 'NONE', #48, #228 ) ;
#177 = APPROVAL ( #202, 'UNSPECIFIED' ) ;
#178 = DATE_AND_TIME ( #220, #40 ) ;
#179 = LINE ( 'NONE', #198, #124 ) ;
#180 = VECTOR ( 'NONE', #221, 1000.000000000000000 ) ;
#181 = ORIENTED_EDGE ( 'NONE', *, *, #12, .F. ) ;
#182 =( NAMED_UNIT ( * ) PLANE_ANGLE_UNIT ( ) SI_UNIT ( $, .RADIAN. ) );
#183 = VECTOR ( 'NONE', #232, 1000.000000000000000 ) ;
#184 = APPROVAL_DATE_TIME ( #94, #126 ) ;
#185 = EDGE_LOOP ( 'NONE', ( #181, #20, #103, #157 ) ) ;
#186 = CARTESIAN_POINT ( 'NONE',  ( 6.349999999999997900, 6.349999999999999600, 1.000000000000000000 ) ) ;
#187 = LOCAL_TIME ( 16, 5, 31.00000000000000000, #234 ) ;
#188 = PLANE ( 'NONE',  #112 ) ;
#189 = PERSON ( 'UNSPECIFIED', 'UNSPECIFIED', 'UNSPECIFIED', ('UNSPECIFIED'), ('UNSPECIFIED'), ('UNSPECIFIED') ) ;
#190 = CARTESIAN_POINT ( 'NONE',  ( 6.349999999999999600, -6.349999999999999600, 1.000000000000000000 ) ) ;
#191 = DATE_AND_TIME ( #236, #52 ) ;
#192 = VECTOR ( 'NONE', #42, 1000.000000000000000 ) ;
#193 = DIRECTION ( 'NONE',  ( 1.000000000000000000, 0.0000000000000000000, 0.0000000000000000000 ) ) ;
#194 = PERSON_AND_ORGANIZATION ( #189, #25 ) ;
#195 = EDGE_LOOP ( 'NONE', ( #44, #219, #22, #141 ) ) ;
#196 = PLANE ( 'NONE',  #78 ) ;
#197 = MANIFOLD_SOLID_BREP ( 'Boss-Extrude1', #60 ) ;
#198 = CARTESIAN_POINT ( 'NONE',  ( -6.349999999999999600, -6.349999999999999600, 1.000000000000000000 ) ) ;
#199 = CARTESIAN_POINT ( 'NONE',  ( -6.350000000000001400, 6.349999999999999600, 1.000000000000000000 ) ) ;
#200 = EDGE_LOOP ( 'NONE', ( #8, #49, #64, #107 ) ) ;
#201 = DIRECTION ( 'NONE',  ( 0.0000000000000000000, -0.0000000000000000000, -1.000000000000000000 ) ) ;
#202 = APPROVAL_STATUS ( 'not_yet_approved' ) ;
#203 = LOCAL_TIME ( 16, 5, 31.00000000000000000, #16 ) ;
#204 = PERSON_AND_ORGANIZATION_ROLE ( 'creator' ) ;
#205 = APPROVAL_DATE_TIME ( #113, #122 ) ;
#206 = APPROVAL_ROLE ( '' ) ;
#207 = PERSON_AND_ORGANIZATION_ROLE ( 'creator' ) ;
#208 = VECTOR ( 'NONE', #63, 1000.000000000000000 ) ;
#209 = LOCAL_TIME ( 16, 5, 31.00000000000000000, #27 ) ;
#210 = VECTOR ( 'NONE', #222, 1000.000000000000000 ) ;
#211 = PERSON_AND_ORGANIZATION_ROLE ( 'design_supplier' ) ;
#212 = FACE_OUTER_BOUND ( 'NONE', #235, .T. ) ;
#213 = SECURITY_CLASSIFICATION_LEVEL ( 'unclassified' ) ;
#214 = ADVANCED_FACE ( 'NONE', ( #72 ), #82, .F. ) ;
#215 = PERSON_AND_ORGANIZATION_ROLE ( 'classification_officer' ) ;
#216 = AXIS2_PLACEMENT_3D ( 'NONE', #21, #152, #54 ) ;
#217 = UNCERTAINTY_MEASURE_WITH_UNIT (LENGTH_MEASURE( 1.000000000000000100E-005 ), #138, 'distance_accuracy_value', 'NONE');
#218 = CARTESIAN_POINT ( 'NONE',  ( 6.349999999999997900, 6.349999999999999600, -1.000000000000000000 ) ) ;
#219 = ORIENTED_EDGE ( 'NONE', *, *, #2, .F. ) ;
#220 = CALENDAR_DATE ( 2017, 1, 5 ) ;
#221 = DIRECTION ( 'NONE',  ( 1.365923996832131600E-016, -1.000000000000000000, 0.0000000000000000000 ) ) ;
#222 = DIRECTION ( 'NONE',  ( -1.000000000000000000, -0.0000000000000000000, -0.0000000000000000000 ) ) ;
#223 = CARTESIAN_POINT ( 'NONE',  ( -6.349999999999999600, -6.349999999999999600, 1.000000000000000000 ) ) ;
#224 = LINE ( 'NONE', #79, #180 ) ;
#225 = LINE ( 'NONE', #165, #183 ) ;
#226 = PRODUCT_DEFINITION ( 'UNKNOWN', '', #55, #96 ) ;
#227 = ADVANCED_BREP_SHAPE_REPRESENTATION ( 'Web Model 85287_85288', ( #197, #133 ), #116 ) ;
#228 = VECTOR ( 'NONE', #70, 1000.000000000000000 ) ;
#229 = AXIS2_PLACEMENT_3D ( 'NONE', #83, #93, #153 ) ;
#230 = VERTEX_POINT ( 'NONE', #190 ) ;
#231 = CARTESIAN_POINT ( 'NONE',  ( -6.349999999999999600, -6.349999999999999600, -1.000000000000000000 ) ) ;
#232 = DIRECTION ( 'NONE',  ( -0.0000000000000000000, -0.0000000000000000000, -1.000000000000000000 ) ) ;
#233 = CC_DESIGN_DATE_AND_TIME_ASSIGNMENT ( #178, #123, ( #226 ) ) ;
#234 = COORDINATED_UNIVERSAL_TIME_OFFSET ( 5, 0, .BEHIND. ) ;
#235 = EDGE_LOOP ( 'NONE', ( #14, #125, #95, #53 ) ) ;
#236 = CALENDAR_DATE ( 2017, 1, 5 ) ;
#237 = ADVANCED_FACE ( 'NONE', ( #81 ), #111, .F. ) ;
ENDSEC;
END-ISO-10303-21;
