ISO-10303-21;
HEADER;
FILE_DESCRIPTION (( 'STEP AP203' ),
    '1' );
FILE_NAME ('Web Model 46162_46645.step',
    '2017-04-19T19:15:31',
    ( '' ),
    ( '' ),
    'SwSTEP 2.0',
    'SolidWorks 2016',
    '' );
FILE_SCHEMA (( 'CONFIG_CONTROL_DESIGN' ));
ENDSEC;

DATA;
#1 = CIRCLE ( 'NONE', #112, 7.500000000000000000 ) ;
#2 = CC_DESIGN_APPROVAL ( #81, ( #20 ) ) ;
#3 = DATE_TIME_ROLE ( 'classification_date' ) ;
#4 = DATE_AND_TIME ( #41, #73 ) ;
#5 = DESIGN_CONTEXT ( 'detailed design', #102, 'design' ) ;
#6 = ORIENTED_EDGE ( 'NONE', *, *, #83, .F. ) ;
#7 = CC_DESIGN_DATE_AND_TIME_ASSIGNMENT ( #28, #3, ( #20 ) ) ;
#8 = DIRECTION ( 'NONE',  ( 0.0000000000000000000, 0.0000000000000000000, 1.000000000000000000 ) ) ;
#9 = APPROVAL_DATE_TIME ( #43, #108 ) ;
#10 = EDGE_CURVE ( 'NONE', #116, #37, #137, .T. ) ;
#11 = DIRECTION ( 'NONE',  ( 0.0000000000000000000, 0.0000000000000000000, 1.000000000000000000 ) ) ;
#12 = CARTESIAN_POINT ( 'NONE',  ( 0.0000000000000000000, 0.0000000000000000000, 0.0000000000000000000 ) ) ;
#13 = APPROVAL_STATUS ( 'not_yet_approved' ) ;
#14 = DIRECTION ( 'NONE',  ( 1.000000000000000000, 0.0000000000000000000, -0.0000000000000000000 ) ) ;
#15 = ORIENTED_EDGE ( 'NONE', *, *, #53, .F. ) ;
#16 = CC_DESIGN_PERSON_AND_ORGANIZATION_ASSIGNMENT ( #171, #39, ( #20 ) ) ;
#17 = APPROVAL_PERSON_ORGANIZATION ( #47, #108, #135 ) ;
#18 = ORIENTED_EDGE ( 'NONE', *, *, #53, .T. ) ;
#19 = ADVANCED_FACE ( 'NONE', ( #67 ), #134, .T. ) ;
#20 = SECURITY_CLASSIFICATION ( '', '', #161 ) ;
#21 = CARTESIAN_POINT ( 'NONE',  ( 7.500000000000000000, 9.184850993605147900E-016, 0.0000000000000000000 ) ) ;
#22 = DIRECTION ( 'NONE',  ( 1.000000000000000000, 0.0000000000000000000, 0.0000000000000000000 ) ) ;
#23 = CC_DESIGN_SECURITY_CLASSIFICATION ( #20, ( #52 ) ) ;
#24 = MANIFOLD_SOLID_BREP ( 'Boss-Extrude1', #93 ) ;
#25 = CALENDAR_DATE ( 2017, 19, 4 ) ;
#26 = ORIENTED_EDGE ( 'NONE', *, *, #153, .F. ) ;
#27 = CC_DESIGN_PERSON_AND_ORGANIZATION_ASSIGNMENT ( #32, #142, ( #52 ) ) ;
#28 = DATE_AND_TIME ( #61, #92 ) ;
#29 = CC_DESIGN_PERSON_AND_ORGANIZATION_ASSIGNMENT ( #66, #48, ( #52 ) ) ;
#30 = LINE ( 'NONE', #172, #91 ) ;
#31 = AXIS2_PLACEMENT_3D ( 'NONE', #97, #74, #50 ) ;
#32 = PERSON_AND_ORGANIZATION ( #170, #163 ) ;
#33 = CIRCLE ( 'NONE', #59, 7.500000000000000000 ) ;
#34 = PRODUCT ( 'Web Model 46162_46645', 'Web Model 46162_46645', '', ( #143 ) ) ;
#35 = LOCAL_TIME ( 15, 15, 31.00000000000000000, #69 ) ;
#36 = EDGE_CURVE ( 'NONE', #78, #116, #33, .T. ) ;
#37 = VERTEX_POINT ( 'NONE', #71 ) ;
#38 = CC_DESIGN_APPROVAL ( #45, ( #52 ) ) ;
#39 = PERSON_AND_ORGANIZATION_ROLE ( 'classification_officer' ) ;
#40 = PRODUCT_RELATED_PRODUCT_CATEGORY ( 'detail', '', ( #34 ) ) ;
#41 = CALENDAR_DATE ( 2017, 19, 4 ) ;
#42 = ORIENTED_EDGE ( 'NONE', *, *, #144, .F. ) ;
#43 = DATE_AND_TIME ( #79, #113 ) ;
#44 = EDGE_LOOP ( 'NONE', ( #15, #26 ) ) ;
#45 = APPROVAL ( #173, 'UNSPECIFIED' ) ;
#46 = DIRECTION ( 'NONE',  ( -0.0000000000000000000, -0.0000000000000000000, -1.000000000000000000 ) ) ;
#47 = PERSON_AND_ORGANIZATION ( #170, #163 ) ;
#48 = PERSON_AND_ORGANIZATION_ROLE ( 'creator' ) ;
#49 = PLANE ( 'NONE',  #65 ) ;
#50 = DIRECTION ( 'NONE',  ( 1.000000000000000000, 0.0000000000000000000, 0.0000000000000000000 ) ) ;
#51 = FACE_OUTER_BOUND ( 'NONE', #55, .T. ) ;
#52 = PRODUCT_DEFINITION_FORMATION_WITH_SPECIFIED_SOURCE ( 'ANY', '', #34, .NOT_KNOWN. ) ;
#53 = EDGE_CURVE ( 'NONE', #37, #80, #174, .T. ) ;
#54 = LOCAL_TIME ( 15, 15, 31.00000000000000000, #90 ) ;
#55 = EDGE_LOOP ( 'NONE', ( #6, #42, #110, #18 ) ) ;
#56 = FACE_OUTER_BOUND ( 'NONE', #152, .T. ) ;
#57 = DIRECTION ( 'NONE',  ( 0.0000000000000000000, 0.0000000000000000000, 1.000000000000000000 ) ) ;
#58 = CC_DESIGN_DATE_AND_TIME_ASSIGNMENT ( #4, #94, ( #117 ) ) ;
#59 = AXIS2_PLACEMENT_3D ( 'NONE', #156, #57, #87 ) ;
#60 = CARTESIAN_POINT ( 'NONE',  ( 7.500000000000000000, 9.184850993605147900E-016, 2.500000000000000000 ) ) ;
#61 = CALENDAR_DATE ( 2017, 19, 4 ) ;
#62 =( LENGTH_UNIT ( ) NAMED_UNIT ( * ) SI_UNIT ( .MILLI., .METRE. ) );
#63 = CARTESIAN_POINT ( 'NONE',  ( 0.0000000000000000000, 0.0000000000000000000, 2.500000000000000000 ) ) ;
#64 = FACE_OUTER_BOUND ( 'NONE', #44, .T. ) ;
#65 = AXIS2_PLACEMENT_3D ( 'NONE', #63, #139, #14 ) ;
#66 = PERSON_AND_ORGANIZATION ( #170, #163 ) ;
#67 = FACE_OUTER_BOUND ( 'NONE', #106, .T. ) ;
#68 = APPROVAL_ROLE ( '' ) ;
#69 = COORDINATED_UNIVERSAL_TIME_OFFSET ( 5, 0, .BEHIND. ) ;
#70 = ORIENTED_EDGE ( 'NONE', *, *, #144, .T. ) ;
#71 = CARTESIAN_POINT ( 'NONE',  ( -7.500000000000000000, 0.0000000000000000000, 0.0000000000000000000 ) ) ;
#72 = DIRECTION ( 'NONE',  ( -0.0000000000000000000, -0.0000000000000000000, -1.000000000000000000 ) ) ;
#73 = LOCAL_TIME ( 15, 15, 31.00000000000000000, #109 ) ;
#74 = DIRECTION ( 'NONE',  ( 0.0000000000000000000, 0.0000000000000000000, 1.000000000000000000 ) ) ;
#75 = ADVANCED_FACE ( 'NONE', ( #51 ), #167, .T. ) ;
#76 = CARTESIAN_POINT ( 'NONE',  ( -7.500000000000000000, 0.0000000000000000000, 2.500000000000000000 ) ) ;
#77 = PLANE ( 'NONE',  #131 ) ;
#78 = VERTEX_POINT ( 'NONE', #60 ) ;
#79 = CALENDAR_DATE ( 2017, 19, 4 ) ;
#80 = VERTEX_POINT ( 'NONE', #21 ) ;
#81 = APPROVAL ( #13, 'UNSPECIFIED' ) ;
#82 = PERSON_AND_ORGANIZATION ( #170, #163 ) ;
#83 = EDGE_CURVE ( 'NONE', #78, #80, #30, .T. ) ;
#84 = UNCERTAINTY_MEASURE_WITH_UNIT (LENGTH_MEASURE( 1.000000000000000100E-005 ), #62, 'distance_accuracy_value', 'NONE');
#85 = APPLICATION_CONTEXT ( 'configuration controlled 3d designs of mechanical parts and assemblies' ) ;
#86 = CARTESIAN_POINT ( 'NONE',  ( 0.0000000000000000000, 0.0000000000000000000, 2.500000000000000000 ) ) ;
#87 = DIRECTION ( 'NONE',  ( 1.000000000000000000, 0.0000000000000000000, 0.0000000000000000000 ) ) ;
#88 = ADVANCED_FACE ( 'NONE', ( #64 ), #77, .F. ) ;
#89 = CC_DESIGN_PERSON_AND_ORGANIZATION_ASSIGNMENT ( #146, #132, ( #117 ) ) ;
#90 = COORDINATED_UNIVERSAL_TIME_OFFSET ( 5, 0, .BEHIND. ) ;
#91 = VECTOR ( 'NONE', #46, 1000.000000000000000 ) ;
#92 = LOCAL_TIME ( 15, 15, 31.00000000000000000, #133 ) ;
#93 = CLOSED_SHELL ( 'NONE', ( #19, #75, #158, #88 ) ) ;
#94 = DATE_TIME_ROLE ( 'creation_date' ) ;
#95 = CC_DESIGN_APPROVAL ( #108, ( #117 ) ) ;
#96 = APPLICATION_PROTOCOL_DEFINITION ( 'international standard', 'config_control_design', 1994, #85 ) ;
#97 = CARTESIAN_POINT ( 'NONE',  ( 0.0000000000000000000, 0.0000000000000000000, 2.500000000000000000 ) ) ;
#98 =( NAMED_UNIT ( * ) SI_UNIT ( $, .STERADIAN. ) SOLID_ANGLE_UNIT ( ) );
#99 = APPROVAL_DATE_TIME ( #136, #45 ) ;
#100 = CARTESIAN_POINT ( 'NONE',  ( 0.0000000000000000000, 0.0000000000000000000, 2.500000000000000000 ) ) ;
#101 = CARTESIAN_POINT ( 'NONE',  ( 0.0000000000000000000, 0.0000000000000000000, 0.0000000000000000000 ) ) ;
#102 = APPLICATION_CONTEXT ( 'configuration controlled 3d designs of mechanical parts and assemblies' ) ;
#103 = VECTOR ( 'NONE', #124, 1000.000000000000000 ) ;
#104 = AXIS2_PLACEMENT_3D ( 'NONE', #100, #114, #154 ) ;
#105 = APPROVAL_PERSON_ORGANIZATION ( #140, #45, #68 ) ;
#106 = EDGE_LOOP ( 'NONE', ( #107, #148, #151, #145 ) ) ;
#107 = ORIENTED_EDGE ( 'NONE', *, *, #36, .F. ) ;
#108 = APPROVAL ( #169, 'UNSPECIFIED' ) ;
#109 = COORDINATED_UNIVERSAL_TIME_OFFSET ( 5, 0, .BEHIND. ) ;
#110 = ORIENTED_EDGE ( 'NONE', *, *, #10, .T. ) ;
#111 = DIRECTION ( 'NONE',  ( 1.000000000000000000, 0.0000000000000000000, 0.0000000000000000000 ) ) ;
#112 = AXIS2_PLACEMENT_3D ( 'NONE', #138, #11, #111 ) ;
#113 = LOCAL_TIME ( 15, 15, 31.00000000000000000, #149 ) ;
#114 = DIRECTION ( 'NONE',  ( -0.0000000000000000000, -0.0000000000000000000, -1.000000000000000000 ) ) ;
#115 = CARTESIAN_POINT ( 'NONE',  ( 0.0000000000000000000, 0.0000000000000000000, 0.0000000000000000000 ) ) ;
#116 = VERTEX_POINT ( 'NONE', #125 ) ;
#117 = PRODUCT_DEFINITION ( 'UNKNOWN', '', #52, #5 ) ;
#118 = AXIS2_PLACEMENT_3D ( 'NONE', #86, #72, #168 ) ;
#119 = APPROVAL_DATE_TIME ( #162, #81 ) ;
#120 = SHAPE_DEFINITION_REPRESENTATION ( #157, #150 ) ;
#121 = CC_DESIGN_PERSON_AND_ORGANIZATION_ASSIGNMENT ( #82, #141, ( #34 ) ) ;
#122 = APPROVAL_ROLE ( '' ) ;
#123 =( NAMED_UNIT ( * ) PLANE_ANGLE_UNIT ( ) SI_UNIT ( $, .RADIAN. ) );
#124 = DIRECTION ( 'NONE',  ( -0.0000000000000000000, -0.0000000000000000000, -1.000000000000000000 ) ) ;
#125 = CARTESIAN_POINT ( 'NONE',  ( -7.500000000000000000, 0.0000000000000000000, 2.500000000000000000 ) ) ;
#126 = APPROVAL_PERSON_ORGANIZATION ( #165, #81, #122 ) ;
#127 = DIRECTION ( 'NONE',  ( 0.0000000000000000000, 0.0000000000000000000, 1.000000000000000000 ) ) ;
#128 = ORIENTED_EDGE ( 'NONE', *, *, #36, .T. ) ;
#129 = DIRECTION ( 'NONE',  ( 1.000000000000000000, 0.0000000000000000000, -0.0000000000000000000 ) ) ;
#130 = CIRCLE ( 'NONE', #31, 7.500000000000000000 ) ;
#131 = AXIS2_PLACEMENT_3D ( 'NONE', #115, #127, #129 ) ;
#132 = PERSON_AND_ORGANIZATION_ROLE ( 'creator' ) ;
#133 = COORDINATED_UNIVERSAL_TIME_OFFSET ( 5, 0, .BEHIND. ) ;
#134 = CYLINDRICAL_SURFACE ( 'NONE', #118, 7.500000000000000000 ) ;
#135 = APPROVAL_ROLE ( '' ) ;
#136 = DATE_AND_TIME ( #175, #35 ) ;
#137 = LINE ( 'NONE', #76, #103 ) ;
#138 = CARTESIAN_POINT ( 'NONE',  ( 0.0000000000000000000, 0.0000000000000000000, 0.0000000000000000000 ) ) ;
#139 = DIRECTION ( 'NONE',  ( 0.0000000000000000000, 0.0000000000000000000, 1.000000000000000000 ) ) ;
#140 = PERSON_AND_ORGANIZATION ( #170, #163 ) ;
#141 = PERSON_AND_ORGANIZATION_ROLE ( 'design_owner' ) ;
#142 = PERSON_AND_ORGANIZATION_ROLE ( 'design_supplier' ) ;
#143 = MECHANICAL_CONTEXT ( 'NONE', #85, 'mechanical' ) ;
#144 = EDGE_CURVE ( 'NONE', #116, #78, #130, .T. ) ;
#145 = ORIENTED_EDGE ( 'NONE', *, *, #10, .F. ) ;
#146 = PERSON_AND_ORGANIZATION ( #170, #163 ) ;
#147 = AXIS2_PLACEMENT_3D ( 'NONE', #12, #159, #160 ) ;
#148 = ORIENTED_EDGE ( 'NONE', *, *, #83, .T. ) ;
#149 = COORDINATED_UNIVERSAL_TIME_OFFSET ( 5, 0, .BEHIND. ) ;
#150 = ADVANCED_BREP_SHAPE_REPRESENTATION ( 'Web Model 46162_46645', ( #24, #155 ), #164 ) ;
#151 = ORIENTED_EDGE ( 'NONE', *, *, #153, .T. ) ;
#152 = EDGE_LOOP ( 'NONE', ( #70, #128 ) ) ;
#153 = EDGE_CURVE ( 'NONE', #80, #37, #1, .T. ) ;
#154 = DIRECTION ( 'NONE',  ( -1.000000000000000000, 0.0000000000000000000, 0.0000000000000000000 ) ) ;
#155 = AXIS2_PLACEMENT_3D ( 'NONE', #101, #8, #22 ) ;
#156 = CARTESIAN_POINT ( 'NONE',  ( 0.0000000000000000000, 0.0000000000000000000, 2.500000000000000000 ) ) ;
#157 = PRODUCT_DEFINITION_SHAPE ( 'NONE', 'NONE',  #117 ) ;
#158 = ADVANCED_FACE ( 'NONE', ( #56 ), #49, .T. ) ;
#159 = DIRECTION ( 'NONE',  ( 0.0000000000000000000, 0.0000000000000000000, 1.000000000000000000 ) ) ;
#160 = DIRECTION ( 'NONE',  ( 1.000000000000000000, 0.0000000000000000000, 0.0000000000000000000 ) ) ;
#161 = SECURITY_CLASSIFICATION_LEVEL ( 'unclassified' ) ;
#162 = DATE_AND_TIME ( #25, #54 ) ;
#163 = ORGANIZATION ( 'UNSPECIFIED', 'UNSPECIFIED', '' ) ;
#164 =( GEOMETRIC_REPRESENTATION_CONTEXT ( 3 ) GLOBAL_UNCERTAINTY_ASSIGNED_CONTEXT ( ( #84 ) ) GLOBAL_UNIT_ASSIGNED_CONTEXT ( ( #62, #123, #98 ) ) REPRESENTATION_CONTEXT ( 'NONE', 'WORKASPACE' ) );
#165 = PERSON_AND_ORGANIZATION ( #170, #163 ) ;
#166 = APPLICATION_PROTOCOL_DEFINITION ( 'international standard', 'config_control_design', 1994, #102 ) ;
#167 = CYLINDRICAL_SURFACE ( 'NONE', #104, 7.500000000000000000 ) ;
#168 = DIRECTION ( 'NONE',  ( -1.000000000000000000, 0.0000000000000000000, 0.0000000000000000000 ) ) ;
#169 = APPROVAL_STATUS ( 'not_yet_approved' ) ;
#170 = PERSON ( 'UNSPECIFIED', 'UNSPECIFIED', 'UNSPECIFIED', ('UNSPECIFIED'), ('UNSPECIFIED'), ('UNSPECIFIED') ) ;
#171 = PERSON_AND_ORGANIZATION ( #170, #163 ) ;
#172 = CARTESIAN_POINT ( 'NONE',  ( 7.500000000000000000, 9.184850993605147900E-016, 2.500000000000000000 ) ) ;
#173 = APPROVAL_STATUS ( 'not_yet_approved' ) ;
#174 = CIRCLE ( 'NONE', #147, 7.500000000000000000 ) ;
#175 = CALENDAR_DATE ( 2017, 19, 4 ) ;
ENDSEC;
END-ISO-10303-21;
