ISO-10303-21;
HEADER;
FILE_DESCRIPTION (( 'STEP AP203' ),
    '1' );
FILE_NAME ('25mm BEAMSPLITTER CUBE TS_13435.step',
    '2020-09-21T13:58:19',
    ( '' ),
    ( '' ),
    'SwSTEP 2.0',
    'SolidWorks 2018',
    '' );
FILE_SCHEMA (( 'CONFIG_CONTROL_DESIGN' ));
ENDSEC;

DATA;
#1 = AXIS2_PLACEMENT_3D ( 'NONE', #133, #245, #247 ) ;
#2 = PERSON_AND_ORGANIZATION ( #178, #351 ) ;
#3 = CARTESIAN_POINT ( 'NONE',  ( 0.0000000000000000000, 0.0000000000000000000, 0.0000000000000000000 ) ) ;
#4 = APPLICATION_CONTEXT ( 'configuration controlled 3d designs of mechanical parts and assemblies' ) ;
#5 = CARTESIAN_POINT ( 'NONE',  ( 12.50000000000000000, 17.67766952966358929, -1.112641391681767256E-15 ) ) ;
#6 = ADVANCED_FACE ( 'NONE', ( #24 ), #162, .F. ) ;
#7 = COORDINATED_UNIVERSAL_TIME_OFFSET ( 5, 0, .BEHIND. ) ;
#8 =( LENGTH_UNIT ( ) NAMED_UNIT ( * ) SI_UNIT ( .MILLI., .METRE. ) );
#9 = APPROVAL_ROLE ( '' ) ;
#10 = EDGE_LOOP ( 'NONE', ( #89, #204, #301 ) ) ;
#11 = PERSON_AND_ORGANIZATION_ROLE ( 'design_supplier' ) ;
#12 = APPLICATION_PROTOCOL_DEFINITION ( 'international standard', 'config_control_design', 1994, #119 ) ;
#13 = CALENDAR_DATE ( 2020, 21, 9 ) ;
#14 = EDGE_CURVE ( 'NONE', #270, #220, #310, .T. ) ;
#15 = PERSON_AND_ORGANIZATION ( #178, #351 ) ;
#16 = APPROVAL ( #177, 'UNKNOWN' ) ;
#17 = PRODUCT_DEFINITION ( 'UNKNOWN', '', #77, #186 ) ;
#18 = LOCAL_TIME ( 9, 58, 19.00000000000000000, #208 ) ;
#19 = ORIENTED_EDGE ( 'NONE', *, *, #264, .T. ) ;
#20 = CC_DESIGN_APPROVAL ( #268, ( #327 ) ) ;
#21 = DIRECTION ( 'NONE',  ( 0.0000000000000000000, 0.7071067811865439090, 0.7071067811865512365 ) ) ;
#22 = LOCAL_TIME ( 9, 58, 19.00000000000000000, #43 ) ;
#23 = DIRECTION ( 'NONE',  ( 0.0000000000000000000, -6.123233995736767268E-17, -1.000000000000000000 ) ) ;
#24 = FACE_OUTER_BOUND ( 'NONE', #236, .T. ) ;
#25 = AXIS2_PLACEMENT_3D ( 'NONE', #160, #359, #80 ) ;
#26 = PLANE ( 'NONE',  #308 ) ;
#27 = DIRECTION ( 'NONE',  ( -1.000000000000000000, 0.0000000000000000000, 0.0000000000000000000 ) ) ;
#28 = APPLICATION_PROTOCOL_DEFINITION ( 'international standard', 'config_control_design', 1994, #4 ) ;
#29 =( NAMED_UNIT ( * ) PLANE_ANGLE_UNIT ( ) SI_UNIT ( $, .RADIAN. ) );
#30 = VECTOR ( 'NONE', #83, 1000.000000000000000 ) ;
#31 = APPROVAL_DATE_TIME ( #82, #215 ) ;
#32 = CARTESIAN_POINT ( 'NONE',  ( 12.50000000000000000, 17.67766952966358929, -1.112641391681767256E-15 ) ) ;
#33 = MECHANICAL_CONTEXT ( 'NONE', #4, 'mechanical' ) ;
#34 = PERSON_AND_ORGANIZATION_ROLE ( 'creator' ) ;
#35 = VERTEX_POINT ( 'NONE', #243 ) ;
#36 = PRODUCT_DEFINITION_SHAPE ( 'NONE', 'NONE',  #17 ) ;
#37 = DATE_AND_TIME ( #64, #140 ) ;
#38 = DATE_TIME_ROLE ( 'classification_date' ) ;
#39 = APPROVAL_STATUS ( 'not_yet_approved' ) ;
#40 = APPROVAL ( #87, 'UNSPECIFIED' ) ;
#41 = APPROVAL_ROLE ( '' ) ;
#42 = EDGE_LOOP ( 'NONE', ( #106, #355, #45, #19 ) ) ;
#43 = COORDINATED_UNIVERSAL_TIME_OFFSET ( 5, 0, .BEHIND. ) ;
#44 = COORDINATED_UNIVERSAL_TIME_OFFSET ( 5, 0, .BEHIND. ) ;
#45 = ORIENTED_EDGE ( 'NONE', *, *, #266, .F. ) ;
#46 = DATE_AND_TIME ( #344, #185 ) ;
#47 = PERSON_AND_ORGANIZATION ( #178, #351 ) ;
#48 = LOCAL_TIME ( 9, 58, 19.00000000000000000, #7 ) ;
#49 = PERSON_AND_ORGANIZATION ( #178, #351 ) ;
#50 = AXIS2_PLACEMENT_3D ( 'NONE', #141, #85, #219 ) ;
#51 = CC_DESIGN_PERSON_AND_ORGANIZATION_ASSIGNMENT ( #52, #11, ( #77 ) ) ;
#52 = PERSON_AND_ORGANIZATION ( #178, #351 ) ;
#53 = CARTESIAN_POINT ( 'NONE',  ( 12.50000000000000000, 17.67766952966358929, -1.112641391681767256E-15 ) ) ;
#54 = CC_DESIGN_APPROVAL ( #184, ( #77 ) ) ;
#55 = CARTESIAN_POINT ( 'NONE',  ( -12.50000000000000000, 17.67766952966358573, -3.469446951953614189E-15 ) ) ;
#56 = CC_DESIGN_APPROVAL ( #40, ( #17 ) ) ;
#57 = APPROVAL_PERSON_ORGANIZATION ( #187, #111, #41 ) ;
#58 = CARTESIAN_POINT ( 'NONE',  ( -12.50000000000000000, -2.164890140588744579E-15, -17.67766952966377758 ) ) ;
#59 = APPROVAL ( #348, 'UNSPECIFIED' ) ;
#60 = DIRECTION ( 'NONE',  ( 0.0000000000000000000, 0.7071067811865439090, 0.7071067811865512365 ) ) ;
#61 = VECTOR ( 'NONE', #23, 1000.000000000000000 ) ;
#62 = CLOSED_SHELL ( 'NONE', ( #135, #341, #169, #6, #196 ) ) ;
#63 = APPLICATION_CONTEXT ( 'configuration controlled 3d designs of mechanical parts and assemblies' ) ;
#64 = CALENDAR_DATE ( 2020, 21, 9 ) ;
#65 = CC_DESIGN_SECURITY_CLASSIFICATION ( #200, ( #77 ) ) ;
#66 = DIRECTION ( 'NONE',  ( 0.0000000000000000000, 0.0000000000000000000, 1.000000000000000000 ) ) ;
#67 = AXIS2_PLACEMENT_3D ( 'NONE', #3, #66, #224 ) ;
#68 = PERSON_AND_ORGANIZATION_ROLE ( 'classification_officer' ) ;
#69 = APPROVAL_ROLE ( '' ) ;
#70 = APPROVAL_ROLE ( '' ) ;
#71 = CC_DESIGN_DATE_AND_TIME_ASSIGNMENT ( #74, #93, ( #105 ) ) ;
#72 = PERSON_AND_ORGANIZATION ( #178, #351 ) ;
#73 = APPROVAL_DATE_TIME ( #37, #40 ) ;
#74 = DATE_AND_TIME ( #202, #271 ) ;
#75 = CALENDAR_DATE ( 2020, 21, 9 ) ;
#76 = LOCAL_TIME ( 9, 58, 19.00000000000000000, #261 ) ;
#77 = PRODUCT_DEFINITION_FORMATION_WITH_SPECIFIED_SOURCE ( 'ANY', '', #152, .NOT_KNOWN. ) ;
#78 = DIRECTION ( 'NONE',  ( 0.0000000000000000000, 0.0000000000000000000, 1.000000000000000000 ) ) ;
#79 = PRODUCT_RELATED_PRODUCT_CATEGORY ( 'detail', '', ( #152 ) ) ;
#80 = DIRECTION ( 'NONE',  ( 0.0000000000000000000, -0.7071067811865439090, -0.7071067811865512365 ) ) ;
#81 = PERSON_AND_ORGANIZATION ( #178, #351 ) ;
#82 = DATE_AND_TIME ( #90, #109 ) ;
#83 = DIRECTION ( 'NONE',  ( -1.000000000000000000, -0.0000000000000000000, -0.0000000000000000000 ) ) ;
#84 = DIRECTION ( 'NONE',  ( 1.000000000000000000, 0.0000000000000000000, 0.0000000000000000000 ) ) ;
#85 = DIRECTION ( 'NONE',  ( 1.000000000000000000, 0.0000000000000000000, 0.0000000000000000000 ) ) ;
#86 = LOCAL_TIME ( 9, 58, 19.00000000000000000, #98 ) ;
#87 = APPROVAL_STATUS ( 'not_yet_approved' ) ;
#88 =( NAMED_UNIT ( * ) PLANE_ANGLE_UNIT ( ) SI_UNIT ( $, .RADIAN. ) );
#89 = ORIENTED_EDGE ( 'NONE', *, *, #283, .F. ) ;
#90 = CALENDAR_DATE ( 2020, 21, 9 ) ;
#91 = DATE_TIME_ROLE ( 'classification_date' ) ;
#92 = CC_DESIGN_PERSON_AND_ORGANIZATION_ASSIGNMENT ( #358, #34, ( #17 ) ) ;
#93 = DATE_TIME_ROLE ( 'classification_date' ) ;
#94 = FACE_OUTER_BOUND ( 'NONE', #350, .T. ) ;
#95 = DESIGN_CONTEXT ( 'detailed design', #119, 'design' ) ;
#96 = AXIS2_PLACEMENT_3D ( 'NONE', #55, #302, #188 ) ;
#97 = CALENDAR_DATE ( 2020, 21, 9 ) ;
#98 = COORDINATED_UNIVERSAL_TIME_OFFSET ( 5, 0, .BEHIND. ) ;
#99 = CC_DESIGN_APPROVAL ( #16, ( #114 ) ) ;
#100 = VECTOR ( 'NONE', #252, 1000.000000000000000 ) ;
#101 = PERSON_AND_ORGANIZATION ( #178, #351 ) ;
#102 = CC_DESIGN_PERSON_AND_ORGANIZATION_ASSIGNMENT ( #206, #255, ( #200 ) ) ;
#103 = APPROVAL_PERSON_ORGANIZATION ( #263, #268, #69 ) ;
#104 = CARTESIAN_POINT ( 'NONE',  ( 12.50000000000000000, -2.164890140588744579E-15, -17.67766952966377758 ) ) ;
#105 = SECURITY_CLASSIFICATION ( '', '', #347 ) ;
#106 = ORIENTED_EDGE ( 'NONE', *, *, #283, .T. ) ;
#107 = CARTESIAN_POINT ( 'NONE',  ( -12.50000000000000000, 17.67766952966358929, -1.112641391681767256E-15 ) ) ;
#108 = APPROVAL_PERSON_ORGANIZATION ( #253, #184, #287 ) ;
#109 = LOCAL_TIME ( 9, 58, 19.00000000000000000, #112 ) ;
#110 = CC_DESIGN_DATE_AND_TIME_ASSIGNMENT ( #46, #201, ( #17 ) ) ;
#111 = APPROVAL ( #316, 'UNSPECIFIED' ) ;
#112 = COORDINATED_UNIVERSAL_TIME_OFFSET ( 5, 0, .BEHIND. ) ;
#113 = FACE_OUTER_BOUND ( 'NONE', #42, .T. ) ;
#114 = SECURITY_CLASSIFICATION ( '', '', #199 ) ;
#115 = APPLICATION_PROTOCOL_DEFINITION ( 'international standard', 'config_control_design', 1994, #306 ) ;
#116 = COORDINATED_UNIVERSAL_TIME_OFFSET ( 5, 0, .BEHIND. ) ;
#117 = PERSON_AND_ORGANIZATION ( #259, #176 ) ;
#118 = SECURITY_CLASSIFICATION_LEVEL ( 'unclassified' ) ;
#119 = APPLICATION_CONTEXT ( 'configuration controlled 3d designs of mechanical parts and assemblies' ) ;
#120 = APPROVAL_STATUS ( 'not_yet_approved' ) ;
#121 = EDGE_CURVE ( 'NONE', #297, #234, #340, .T. ) ;
#122 = VERTEX_POINT ( 'NONE', #107 ) ;
#123 = CONTEXT_DEPENDENT_SHAPE_REPRESENTATION ( #175, #232 ) ;
#124 = LINE ( 'NONE', #5, #100 ) ;
#125 = CC_DESIGN_SECURITY_CLASSIFICATION ( #105, ( #231 ) ) ;
#126 = APPROVAL_DATE_TIME ( #149, #268 ) ;
#127 = CARTESIAN_POINT ( 'NONE',  ( -12.50000000000000000, 0.0000000000000000000, 17.67766952966377758 ) ) ;
#128 = LINE ( 'NONE', #179, #352 ) ;
#129 = CC_DESIGN_PERSON_AND_ORGANIZATION_ASSIGNMENT ( #49, #144, ( #354 ) ) ;
#130 = DATE_AND_TIME ( #75, #223 ) ;
#131 = DIRECTION ( 'NONE',  ( 0.0000000000000000000, -0.7071067811865512365, -0.7071067811865439090 ) ) ;
#132 = PRODUCT_DEFINITION_SHAPE ( 'NONE', 'NONE',  #300 ) ;
#133 = CARTESIAN_POINT ( 'NONE',  ( 12.50000000000000000, 0.0000000000000000000, 17.67766952966377758 ) ) ;
#134 = DIRECTION ( 'NONE',  ( -1.000000000000000222, 0.0000000000000000000, 5.551115123125782702E-17 ) ) ;
#135 = ADVANCED_FACE ( 'NONE', ( #113 ), #26, .F. ) ;
#136 = CC_DESIGN_PERSON_AND_ORGANIZATION_ASSIGNMENT ( #15, #222, ( #152 ) ) ;
#137 = DIRECTION ( 'NONE',  ( 1.000000000000000000, 0.0000000000000000000, 0.0000000000000000000 ) ) ;
#138 = ORIENTED_EDGE ( 'NONE', *, *, #121, .T. ) ;
#139 = CARTESIAN_POINT ( 'NONE',  ( 0.0000000000000000000, 0.0000000000000000000, 0.0000000000000000000 ) ) ;
#140 = LOCAL_TIME ( 9, 58, 19.00000000000000000, #205 ) ;
#141 = CARTESIAN_POINT ( 'NONE',  ( 0.0000000000000000000, 0.0000000000000000000, 0.0000000000000000000 ) ) ;
#142 = CC_DESIGN_PERSON_AND_ORGANIZATION_ASSIGNMENT ( #72, #258, ( #231 ) ) ;
#143 =( REPRESENTATION_RELATIONSHIP ('NONE','NONE', #227, #320 ) REPRESENTATION_RELATIONSHIP_WITH_TRANSFORMATION ( #292 )SHAPE_REPRESENTATION_RELATIONSHIP( ) );
#144 = PERSON_AND_ORGANIZATION_ROLE ( 'design_owner' ) ;
#145 = ORIENTED_EDGE ( 'NONE', *, *, #272, .T. ) ;
#146 = LINE ( 'NONE', #53, #277 ) ;
#147 = APPROVAL_STATUS ( 'not_yet_approved' ) ;
#148 = APPROVAL_DATE_TIME ( #333, #295 ) ;
#149 = DATE_AND_TIME ( #218, #18 ) ;
#150 = DATE_AND_TIME ( #280, #48 ) ;
#151 = CC_DESIGN_APPROVAL ( #111, ( #200 ) ) ;
#152 = PRODUCT ( '25mm BEAMSPLITTER CUBE TS_13435', '25mm BEAMSPLITTER CUBE TS_13435', '', ( #33 ) ) ;
#153 = VECTOR ( 'NONE', #60, 1000.000000000000000 ) ;
#154 = VECTOR ( 'NONE', #21, 1000.000000000000000 ) ;
#155 = MANIFOLD_SOLID_BREP ( 'Extrude1', #62 ) ;
#156 = CC_DESIGN_APPROVAL ( #295, ( #300 ) ) ;
#157 = EDGE_CURVE ( 'NONE', #35, #270, #128, .T. ) ;
#158 = CALENDAR_DATE ( 2020, 21, 9 ) ;
#159 = CONTEXT_DEPENDENT_SHAPE_REPRESENTATION ( #143, #275 ) ;
#160 = CARTESIAN_POINT ( 'NONE',  ( 12.50000000000000000, -2.164890140588744579E-15, -17.67766952966377758 ) ) ;
#161 = DIRECTION ( 'NONE',  ( 0.0000000000000000000, 0.7071067811865439090, -0.7071067811865512365 ) ) ;
#162 = PLANE ( 'NONE',  #331 ) ;
#163 = COORDINATED_UNIVERSAL_TIME_OFFSET ( 5, 0, .BEHIND. ) ;
#164 = UNCERTAINTY_MEASURE_WITH_UNIT (LENGTH_MEASURE( 1.000000000000000082E-05 ), #221, 'distance_accuracy_value', 'NONE');
#165 =( GEOMETRIC_REPRESENTATION_CONTEXT ( 3 ) GLOBAL_UNCERTAINTY_ASSIGNED_CONTEXT ( ( #164 ) ) GLOBAL_UNIT_ASSIGNED_CONTEXT ( ( #221, #29, #276 ) ) REPRESENTATION_CONTEXT ( 'NONE', 'WORKASPACE' ) );
#166 = CARTESIAN_POINT ( 'NONE',  ( -12.50000000000000000, 0.0000000000000000000, 17.67766952966377758 ) ) ;
#167 = LOCAL_TIME ( 9, 58, 19.00000000000000000, #337 ) ;
#168 = CC_DESIGN_SECURITY_CLASSIFICATION ( #114, ( #360 ) ) ;
#169 = ADVANCED_FACE ( 'NONE', ( #294 ), #240, .F. ) ;
#170 = CARTESIAN_POINT ( 'NONE',  ( -12.50000000000000000, -2.164890140588744579E-15, -17.67766952966377758 ) ) ;
#171 = PERSON_AND_ORGANIZATION_ROLE ( 'creator' ) ;
#172 = LOCAL_TIME ( 9, 58, 19.00000000000000000, #241 ) ;
#173 = AXIS2_PLACEMENT_3D ( 'NONE', #139, #338, #137 ) ;
#174 = DATE_AND_TIME ( #314, #246 ) ;
#175 =( REPRESENTATION_RELATIONSHIP ('NONE','NONE', #227, #320 ) REPRESENTATION_RELATIONSHIP_WITH_TRANSFORMATION ( #353 )SHAPE_REPRESENTATION_RELATIONSHIP( ) );
#176 = ORGANIZATION ( 'NAUO-ORG1', 'UNSPECIFIED', 'UNSPECIFIED' ) ;
#177 = APPROVAL_STATUS ( 'not_yet_approved' ) ;
#178 = PERSON ( 'UNSPECIFIED', 'UNSPECIFIED', 'UNSPECIFIED', ('UNSPECIFIED'), ('UNSPECIFIED'), ('UNSPECIFIED') ) ;
#179 = CARTESIAN_POINT ( 'NONE',  ( 12.50000000000000000, 0.0000000000000000000, 17.67766952966377758 ) ) ;
#180 = PRODUCT_RELATED_PRODUCT_CATEGORY ( 'detail', '', ( #354 ) ) ;
#181 = DATE_AND_TIME ( #238, #76 ) ;
#182 = CC_DESIGN_PERSON_AND_ORGANIZATION_ASSIGNMENT ( #117, #68, ( #114 ) ) ;
#183 = ORIENTED_EDGE ( 'NONE', *, *, #212, .T. ) ;
#184 = APPROVAL ( #120, 'UNSPECIFIED' ) ;
#185 = LOCAL_TIME ( 9, 58, 19.00000000000000000, #195 ) ;
#186 = DESIGN_CONTEXT ( 'detailed design', #63, 'design' ) ;
#187 = PERSON_AND_ORGANIZATION ( #178, #351 ) ;
#188 = DIRECTION ( 'NONE',  ( 0.0000000000000000000, 0.0000000000000000000, 1.000000000000000000 ) ) ;
#189 = CARTESIAN_POINT ( 'NONE',  ( 12.50000000000000000, 17.67766952966358573, -3.469446951953614189E-15 ) ) ;
#190 =( NAMED_UNIT ( * ) SI_UNIT ( $, .STERADIAN. ) SOLID_ANGLE_UNIT ( ) );
#191 = CC_DESIGN_SECURITY_CLASSIFICATION ( #327, ( #361 ) ) ;
#192 = CARTESIAN_POINT ( 'NONE',  ( 0.0000000000000000000, 0.0000000000000000000, 0.0000000000000000000 ) ) ;
#193 = DIRECTION ( 'NONE',  ( 0.0000000000000000000, -0.7071067811865439090, 0.7071067811865512365 ) ) ;
#194 = CARTESIAN_POINT ( 'NONE',  ( 12.50000000000000000, -2.164890140588744579E-15, -17.67766952966377758 ) ) ;
#195 = COORDINATED_UNIVERSAL_TIME_OFFSET ( 5, 0, .BEHIND. ) ;
#196 = ADVANCED_FACE ( 'NONE', ( #242 ), #244, .T. ) ;
#197 = APPROVAL_ROLE ( '' ) ;
#198 = DATE_TIME_ROLE ( 'classification_date' ) ;
#199 = SECURITY_CLASSIFICATION_LEVEL ( 'unclassified' ) ;
#200 = SECURITY_CLASSIFICATION ( '', '', #313 ) ;
#201 = DATE_TIME_ROLE ( 'creation_date' ) ;
#202 = CALENDAR_DATE ( 2020, 21, 9 ) ;
#203 = CC_DESIGN_DATE_AND_TIME_ASSIGNMENT ( #296, #91, ( #327 ) ) ;
#204 = ORIENTED_EDGE ( 'NONE', *, *, #251, .F. ) ;
#205 = COORDINATED_UNIVERSAL_TIME_OFFSET ( 5, 0, .BEHIND. ) ;
#206 = PERSON_AND_ORGANIZATION ( #178, #351 ) ;
#207 = ADVANCED_BREP_SHAPE_REPRESENTATION ( '', ( #155, #67 ), #165 ) ;
#208 = COORDINATED_UNIVERSAL_TIME_OFFSET ( 5, 0, .BEHIND. ) ;
#209 =( GEOMETRIC_REPRESENTATION_CONTEXT ( 3 ) GLOBAL_UNCERTAINTY_ASSIGNED_CONTEXT ( ( #303 ) ) GLOBAL_UNIT_ASSIGNED_CONTEXT ( ( #8, #88, #190 ) ) REPRESENTATION_CONTEXT ( 'NONE', 'WORKASPACE' ) );
#210 = PERSON ( 'NAUO-PER2', 'UNSPECIFIED', 'UNSPECIFIED', ('UNSPECIFIED'), ('UNSPECIFIED'), ('UNSPECIFIED') ) ;
#211 = CC_DESIGN_PERSON_AND_ORGANIZATION_ASSIGNMENT ( #357, #230, ( #105 ) ) ;
#212 = EDGE_CURVE ( 'NONE', #35, #297, #265, .T. ) ;
#213 = ORIENTED_EDGE ( 'NONE', *, *, #157, .T. ) ;
#214 = DIRECTION ( 'NONE',  ( 0.0000000000000000000, -6.123233995736767268E-17, -1.000000000000000000 ) ) ;
#215 = APPROVAL ( #39, 'UNSPECIFIED' ) ;
#216 = LINE ( 'NONE', #170, #153 ) ;
#217 = APPROVAL_DATE_TIME ( #174, #111 ) ;
#218 = CALENDAR_DATE ( 2020, 21, 9 ) ;
#219 = DIRECTION ( 'NONE',  ( 0.0000000000000000000, 0.0000000000000000000, -1.000000000000000000 ) ) ;
#220 = VERTEX_POINT ( 'NONE', #32 ) ;
#221 =( LENGTH_UNIT ( ) NAMED_UNIT ( * ) SI_UNIT ( .MILLI., .METRE. ) );
#222 = PERSON_AND_ORGANIZATION_ROLE ( 'design_owner' ) ;
#223 = LOCAL_TIME ( 9, 58, 19.00000000000000000, #44 ) ;
#224 = DIRECTION ( 'NONE',  ( 1.000000000000000000, 0.0000000000000000000, 0.0000000000000000000 ) ) ;
#225 = APPROVAL_ROLE ( '' ) ;
#226 = ORIENTED_EDGE ( 'NONE', *, *, #266, .T. ) ;
#227 = SHAPE_REPRESENTATION ( '25mm BEAMSPLITTER CUBE TS_13435', ( #173, #50, #335 ), #209 ) ;
#228 = APPROVAL_STATUS ( 'not_yet_approved' ) ;
#229 = APPROVAL_PERSON_ORGANIZATION ( #2, #215, #309 ) ;
#230 = PERSON_AND_ORGANIZATION_ROLE ( 'classification_officer' ) ;
#231 = PRODUCT_DEFINITION_FORMATION_WITH_SPECIFIED_SOURCE ( 'ANY', '', #354, .NOT_KNOWN. ) ;
#232 = PRODUCT_DEFINITION_SHAPE ( 'NONE', 'NONE',  #361 ) ;
#233 = CALENDAR_DATE ( 2020, 21, 9 ) ;
#234 = VERTEX_POINT ( 'NONE', #58 ) ;
#235 = CC_DESIGN_PERSON_AND_ORGANIZATION_ASSIGNMENT ( #254, #346, ( #300 ) ) ;
#236 = EDGE_LOOP ( 'NONE', ( #226, #213, #290 ) ) ;
#237 = VECTOR ( 'NONE', #193, 999.9999999999998863 ) ;
#238 = CALENDAR_DATE ( 2020, 21, 9 ) ;
#239 = CC_DESIGN_PERSON_AND_ORGANIZATION_ASSIGNMENT ( #263, #284, ( #327 ) ) ;
#240 = PLANE ( 'NONE',  #25 ) ;
#241 = COORDINATED_UNIVERSAL_TIME_OFFSET ( 5, 0, .BEHIND. ) ;
#242 = FACE_OUTER_BOUND ( 'NONE', #10, .T. ) ;
#243 = CARTESIAN_POINT ( 'NONE',  ( 12.50000000000000000, 0.0000000000000000000, 17.67766952966377758 ) ) ;
#244 = PLANE ( 'NONE',  #96 ) ;
#245 = DIRECTION ( 'NONE',  ( 0.0000000000000000000, 1.000000000000000000, -6.123233995736767268E-17 ) ) ;
#246 = LOCAL_TIME ( 9, 58, 19.00000000000000000, #116 ) ;
#247 = DIRECTION ( 'NONE',  ( 0.0000000000000000000, 6.123233995736767268E-17, 1.000000000000000000 ) ) ;
#248 = CC_DESIGN_DATE_AND_TIME_ASSIGNMENT ( #328, #198, ( #200 ) ) ;
#249 = APPLICATION_PROTOCOL_DEFINITION ( 'international standard', 'config_control_design', 1994, #63 ) ;
#250 = ORIENTED_EDGE ( 'NONE', *, *, #14, .F. ) ;
#251 = EDGE_CURVE ( 'NONE', #234, #122, #216, .T. ) ;
#252 = DIRECTION ( 'NONE',  ( -1.000000000000000000, -0.0000000000000000000, -0.0000000000000000000 ) ) ;
#253 = PERSON_AND_ORGANIZATION ( #178, #351 ) ;
#254 = PERSON_AND_ORGANIZATION ( #178, #351 ) ;
#255 = PERSON_AND_ORGANIZATION_ROLE ( 'classification_officer' ) ;
#256 = DATE_TIME_ROLE ( 'creation_date' ) ;
#257 = CC_DESIGN_APPROVAL ( #215, ( #231 ) ) ;
#258 = PERSON_AND_ORGANIZATION_ROLE ( 'design_supplier' ) ;
#259 = PERSON ( 'NAUO-PER1', 'UNSPECIFIED', 'UNSPECIFIED', ('UNSPECIFIED'), ('UNSPECIFIED'), ('UNSPECIFIED') ) ;
#260 = ORIENTED_EDGE ( 'NONE', *, *, #251, .T. ) ;
#261 = COORDINATED_UNIVERSAL_TIME_OFFSET ( 5, 0, .BEHIND. ) ;
#262 = SHAPE_DEFINITION_REPRESENTATION ( #36, #227 ) ;
#263 = PERSON_AND_ORGANIZATION ( #210, #329 ) ;
#264 = EDGE_CURVE ( 'NONE', #220, #122, #124, .T. ) ;
#265 = LINE ( 'NONE', #281, #332 ) ;
#266 = EDGE_CURVE ( 'NONE', #220, #35, #146, .T. ) ;
#267 = APPROVAL_DATE_TIME ( #130, #16 ) ;
#268 = APPROVAL ( #228, 'UNKNOWN' ) ;
#269 = CC_DESIGN_APPROVAL ( #59, ( #105 ) ) ;
#270 = VERTEX_POINT ( 'NONE', #336 ) ;
#271 = LOCAL_TIME ( 9, 58, 19.00000000000000000, #321 ) ;
#272 = EDGE_CURVE ( 'NONE', #270, #234, #312, .T. ) ;
#273 = DIRECTION ( 'NONE',  ( 0.0000000000000000000, -0.7071067811865439090, 0.7071067811865512365 ) ) ;
#274 = CARTESIAN_POINT ( 'NONE',  ( 0.0000000000000000000, 0.0000000000000000000, 0.0000000000000000000 ) ) ;
#275 = PRODUCT_DEFINITION_SHAPE ( 'NONE', 'NONE',  #360 ) ;
#276 =( NAMED_UNIT ( * ) SI_UNIT ( $, .STERADIAN. ) SOLID_ANGLE_UNIT ( ) );
#277 = VECTOR ( 'NONE', #273, 999.9999999999998863 ) ;
#278 = DIRECTION ( 'NONE',  ( 0.0000000000000000000, 0.0000000000000000000, 1.000000000000000000 ) ) ;
#279 = CALENDAR_DATE ( 2020, 21, 9 ) ;
#280 = CALENDAR_DATE ( 2020, 21, 9 ) ;
#281 = CARTESIAN_POINT ( 'NONE',  ( 12.50000000000000000, 0.0000000000000000000, 17.67766952966377758 ) ) ;
#282 = PERSON_AND_ORGANIZATION_ROLE ( 'creator' ) ;
#283 = EDGE_CURVE ( 'NONE', #122, #297, #319, .T. ) ;
#284 = PERSON_AND_ORGANIZATION_ROLE ( 'classification_officer' ) ;
#285 = EDGE_LOOP ( 'NONE', ( #260, #311, #250, #145 ) ) ;
#286 = PERSON_AND_ORGANIZATION ( #178, #351 ) ;
#287 = APPROVAL_ROLE ( '' ) ;
#288 = DATE_AND_TIME ( #13, #325 ) ;
#289 = CC_DESIGN_PERSON_AND_ORGANIZATION_ASSIGNMENT ( #286, #282, ( #231 ) ) ;
#290 = ORIENTED_EDGE ( 'NONE', *, *, #14, .T. ) ;
#291 = APPROVAL_PERSON_ORGANIZATION ( #117, #16, #225 ) ;
#292 = ITEM_DEFINED_TRANSFORMATION ( 'NONE', 'NONE', #50,  #67 ) ;
#293 = APPROVAL_DATE_TIME ( #318, #184 ) ;
#294 = FACE_OUTER_BOUND ( 'NONE', #285, .T. ) ;
#295 = APPROVAL ( #147, 'UNSPECIFIED' ) ;
#296 = DATE_AND_TIME ( #279, #22 ) ;
#297 = VERTEX_POINT ( 'NONE', #166 ) ;
#298 = APPROVAL_PERSON_ORGANIZATION ( #81, #40, #197 ) ;
#299 = CARTESIAN_POINT ( 'NONE',  ( 12.50000000000000000, 17.67766952966358929, -1.112641391681767256E-15 ) ) ;
#300 = PRODUCT_DEFINITION ( 'UNKNOWN', '', #231, #95 ) ;
#301 = ORIENTED_EDGE ( 'NONE', *, *, #121, .F. ) ;
#302 = DIRECTION ( 'NONE',  ( -1.000000000000000000, 0.0000000000000000000, 0.0000000000000000000 ) ) ;
#303 = UNCERTAINTY_MEASURE_WITH_UNIT (LENGTH_MEASURE( 1.000000000000000082E-05 ), #8, 'distance_accuracy_value', 'NONE');
#304 = PLANE ( 'NONE',  #1 ) ;
#305 = CC_DESIGN_DATE_AND_TIME_ASSIGNMENT ( #288, #38, ( #114 ) ) ;
#306 = APPLICATION_CONTEXT ( 'configuration controlled 3d designs of mechanical parts and assemblies' ) ;
#307 = DIRECTION ( 'NONE',  ( -5.551115123125782702E-17, 0.0000000000000000000, -1.000000000000000222 ) ) ;
#308 = AXIS2_PLACEMENT_3D ( 'NONE', #299, #131, #161 ) ;
#309 = APPROVAL_ROLE ( '' ) ;
#310 = LINE ( 'NONE', #104, #154 ) ;
#311 = ORIENTED_EDGE ( 'NONE', *, *, #264, .F. ) ;
#312 = LINE ( 'NONE', #194, #30 ) ;
#313 = SECURITY_CLASSIFICATION_LEVEL ( 'unclassified' ) ;
#314 = CALENDAR_DATE ( 2020, 21, 9 ) ;
#315 = MECHANICAL_CONTEXT ( 'NONE', #306, 'mechanical' ) ;
#316 = APPROVAL_STATUS ( 'not_yet_approved' ) ;
#317 = AXIS2_PLACEMENT_3D ( 'NONE', #192, #278, #84 ) ;
#318 = DATE_AND_TIME ( #97, #172 ) ;
#319 = LINE ( 'NONE', #343, #237 ) ;
#320 = SHAPE_REPRESENTATION ( '25x25 Right Angle Prism Master', ( #67 ), #165 ) ;
#321 = COORDINATED_UNIVERSAL_TIME_OFFSET ( 5, 0, .BEHIND. ) ;
#322 = CC_DESIGN_PERSON_AND_ORGANIZATION_ASSIGNMENT ( #349, #171, ( #77 ) ) ;
#323 = APPROVAL_PERSON_ORGANIZATION ( #47, #59, #70 ) ;
#324 = APPROVAL_PERSON_ORGANIZATION ( #101, #295, #9 ) ;
#325 = LOCAL_TIME ( 9, 58, 19.00000000000000000, #163 ) ;
#326 = SHAPE_REPRESENTATION_RELATIONSHIP ( 'NONE' , 'NONE' ,  #320, #207 ) ;
#327 = SECURITY_CLASSIFICATION ( '', '', #118 ) ;
#328 = DATE_AND_TIME ( #233, #86 ) ;
#329 = ORGANIZATION ( 'NAUO-ORG2', 'UNSPECIFIED', 'UNSPECIFIED' ) ;
#330 = ORIENTED_EDGE ( 'NONE', *, *, #157, .F. ) ;
#331 = AXIS2_PLACEMENT_3D ( 'NONE', #189, #27, #78 ) ;
#332 = VECTOR ( 'NONE', #339, 1000.000000000000000 ) ;
#333 = DATE_AND_TIME ( #158, #167 ) ;
#334 = APPROVAL_DATE_TIME ( #150, #59 ) ;
#335 = AXIS2_PLACEMENT_3D ( 'NONE', #274, #134, #307 ) ;
#336 = CARTESIAN_POINT ( 'NONE',  ( 12.50000000000000000, -2.164890140588744579E-15, -17.67766952966377758 ) ) ;
#337 = COORDINATED_UNIVERSAL_TIME_OFFSET ( 5, 0, .BEHIND. ) ;
#338 = DIRECTION ( 'NONE',  ( 0.0000000000000000000, 0.0000000000000000000, 1.000000000000000000 ) ) ;
#339 = DIRECTION ( 'NONE',  ( -1.000000000000000000, -0.0000000000000000000, -0.0000000000000000000 ) ) ;
#340 = LINE ( 'NONE', #127, #61 ) ;
#341 = ADVANCED_FACE ( 'NONE', ( #94 ), #304, .F. ) ;
#342 = ORIENTED_EDGE ( 'NONE', *, *, #272, .F. ) ;
#343 = CARTESIAN_POINT ( 'NONE',  ( -12.50000000000000000, 17.67766952966358929, -1.112641391681767256E-15 ) ) ;
#344 = CALENDAR_DATE ( 2020, 21, 9 ) ;
#345 = SHAPE_DEFINITION_REPRESENTATION ( #132, #320 ) ;
#346 = PERSON_AND_ORGANIZATION_ROLE ( 'creator' ) ;
#347 = SECURITY_CLASSIFICATION_LEVEL ( 'unclassified' ) ;
#348 = APPROVAL_STATUS ( 'not_yet_approved' ) ;
#349 = PERSON_AND_ORGANIZATION ( #178, #351 ) ;
#350 = EDGE_LOOP ( 'NONE', ( #138, #342, #330, #183 ) ) ;
#351 = ORGANIZATION ( 'UNSPECIFIED', 'UNSPECIFIED', '' ) ;
#352 = VECTOR ( 'NONE', #214, 1000.000000000000000 ) ;
#353 = ITEM_DEFINED_TRANSFORMATION ( 'NONE', 'NONE', #335,  #67 ) ;
#354 = PRODUCT ( '25x25 Right Angle Prism Master', '25x25 Right Angle Prism Master', '', ( #315 ) ) ;
#355 = ORIENTED_EDGE ( 'NONE', *, *, #212, .F. ) ;
#356 = CC_DESIGN_DATE_AND_TIME_ASSIGNMENT ( #181, #256, ( #300 ) ) ;
#357 = PERSON_AND_ORGANIZATION ( #178, #351 ) ;
#358 = PERSON_AND_ORGANIZATION ( #178, #351 ) ;
#359 = DIRECTION ( 'NONE',  ( 0.0000000000000000000, -0.7071067811865512365, 0.7071067811865439090 ) ) ;
#360 = NEXT_ASSEMBLY_USAGE_OCCURRENCE ( 'NAUO1', ' ', ' ', #17, #300, $ ) ;
#361 = NEXT_ASSEMBLY_USAGE_OCCURRENCE ( 'NAUO2', ' ', ' ', #17, #300, $ ) ;
ENDSEC;
END-ISO-10303-21;
