ISO-10303-21;
HEADER;
FILE_DESCRIPTION (( 'STEP AP203' ),
    '1' );
FILE_NAME ('Web Model 12312_12312.step',
    '2019-01-23T20:59:56',
    ( '' ),
    ( '' ),
    'SwSTEP 2.0',
    'SolidWorks 2016',
    '' );
FILE_SCHEMA (( 'CONFIG_CONTROL_DESIGN' ));
ENDSEC;

DATA;
#1 = FACE_OUTER_BOUND ( 'NONE', #98, .T. ) ;
#2 = CC_DESIGN_PERSON_AND_ORGANIZATION_ASSIGNMENT ( #190, #9, ( #205 ) ) ;
#3 = PLANE ( 'NONE',  #91 ) ;
#4 = DIRECTION ( 'NONE',  ( 0.0000000000000000000, 1.000000000000000000, 0.0000000000000000000 ) ) ;
#5 = LINE ( 'NONE', #225, #124 ) ;
#6 = APPROVAL_STATUS ( 'not_yet_approved' ) ;
#7 = LOCAL_TIME ( 15, 59, 56.00000000000000000, #58 ) ;
#8 = CC_DESIGN_APPROVAL ( #202, ( #205 ) ) ;
#9 = PERSON_AND_ORGANIZATION_ROLE ( 'design_supplier' ) ;
#10 = EDGE_LOOP ( 'NONE', ( #167, #135, #204, #198 ) ) ;
#11 = APPROVAL_PERSON_ORGANIZATION ( #128, #93, #147 ) ;
#12 = DIRECTION ( 'NONE',  ( 0.0000000000000000000, 1.000000000000000000, 0.0000000000000000000 ) ) ;
#13 = LINE ( 'NONE', #158, #207 ) ;
#14 = SECURITY_CLASSIFICATION ( '', '', #144 ) ;
#15 = VERTEX_POINT ( 'NONE', #80 ) ;
#16 = CC_DESIGN_DATE_AND_TIME_ASSIGNMENT ( #142, #178, ( #214 ) ) ;
#17 = ADVANCED_FACE ( 'NONE', ( #1 ), #101, .F. ) ;
#18 = EDGE_LOOP ( 'NONE', ( #74, #169, #136, #47 ) ) ;
#19 = FACE_OUTER_BOUND ( 'NONE', #131, .T. ) ;
#20 = PERSON_AND_ORGANIZATION ( #68, #184 ) ;
#21 = EDGE_CURVE ( 'NONE', #57, #160, #182, .T. ) ;
#22 = DIRECTION ( 'NONE',  ( 1.000000000000000000, 0.0000000000000000000, 0.0000000000000000000 ) ) ;
#23 = ORIENTED_EDGE ( 'NONE', *, *, #117, .T. ) ;
#24 = DIRECTION ( 'NONE',  ( 1.000000000000000000, 0.0000000000000000000, 0.0000000000000000000 ) ) ;
#25 = EDGE_CURVE ( 'NONE', #236, #171, #189, .T. ) ;
#26 = CARTESIAN_POINT ( 'NONE',  ( -63.50000000000000000, -6.349999999999999600, 0.05000000000000000300 ) ) ;
#27 = LINE ( 'NONE', #85, #186 ) ;
#28 = APPROVAL_ROLE ( '' ) ;
#29 = PERSON_AND_ORGANIZATION ( #68, #184 ) ;
#30 = DIRECTION ( 'NONE',  ( -1.000000000000000000, 0.0000000000000000000, -0.0000000000000000000 ) ) ;
#31 = VECTOR ( 'NONE', #83, 1000.000000000000000 ) ;
#32 = ORIENTED_EDGE ( 'NONE', *, *, #92, .F. ) ;
#33 = ORIENTED_EDGE ( 'NONE', *, *, #38, .F. ) ;
#34 = APPROVAL_DATE_TIME ( #226, #93 ) ;
#35 = DATE_AND_TIME ( #164, #188 ) ;
#36 = VERTEX_POINT ( 'NONE', #195 ) ;
#37 = CC_DESIGN_APPROVAL ( #93, ( #14 ) ) ;
#38 = EDGE_CURVE ( 'NONE', #15, #160, #67, .T. ) ;
#39 = EDGE_LOOP ( 'NONE', ( #127, #153, #149, #197 ) ) ;
#40 = CC_DESIGN_PERSON_AND_ORGANIZATION_ASSIGNMENT ( #113, #88, ( #14 ) ) ;
#41 = CC_DESIGN_DATE_AND_TIME_ASSIGNMENT ( #138, #216, ( #14 ) ) ;
#42 = CALENDAR_DATE ( 2019, 23, 1 ) ;
#43 = PRODUCT_DEFINITION_SHAPE ( 'NONE', 'NONE',  #214 ) ;
#44 = CARTESIAN_POINT ( 'NONE',  ( -63.50000000000000000, 6.349999999999999600, 0.05000000000000000300 ) ) ;
#45 = CARTESIAN_POINT ( 'NONE',  ( 63.50000000000000000, -6.349999999999999600, -0.05000000000000000300 ) ) ;
#46 = DIRECTION ( 'NONE',  ( 0.0000000000000000000, 0.0000000000000000000, 1.000000000000000000 ) ) ;
#47 = ORIENTED_EDGE ( 'NONE', *, *, #38, .T. ) ;
#48 = DIRECTION ( 'NONE',  ( 0.0000000000000000000, 0.0000000000000000000, 1.000000000000000000 ) ) ;
#49 = PERSON_AND_ORGANIZATION_ROLE ( 'creator' ) ;
#50 = SHAPE_DEFINITION_REPRESENTATION ( #43, #56 ) ;
#51 = DIRECTION ( 'NONE',  ( -1.000000000000000000, -0.0000000000000000000, -0.0000000000000000000 ) ) ;
#52 = DIRECTION ( 'NONE',  ( -0.0000000000000000000, -1.000000000000000000, -0.0000000000000000000 ) ) ;
#53 = PLANE ( 'NONE',  #130 ) ;
#54 =( GEOMETRIC_REPRESENTATION_CONTEXT ( 3 ) GLOBAL_UNCERTAINTY_ASSIGNED_CONTEXT ( ( #102 ) ) GLOBAL_UNIT_ASSIGNED_CONTEXT ( ( #228, #179, #63 ) ) REPRESENTATION_CONTEXT ( 'NONE', 'WORKASPACE' ) );
#55 = LINE ( 'NONE', #125, #196 ) ;
#56 = ADVANCED_BREP_SHAPE_REPRESENTATION ( 'Web Model 12312_12312', ( #193, #97 ), #54 ) ;
#57 = VERTEX_POINT ( 'NONE', #194 ) ;
#58 = COORDINATED_UNIVERSAL_TIME_OFFSET ( 5, 0, .BEHIND. ) ;
#59 = CARTESIAN_POINT ( 'NONE',  ( -63.50000000000000000, -6.349999999999999600, 0.05000000000000000300 ) ) ;
#60 = CARTESIAN_POINT ( 'NONE',  ( -63.50000000000000000, 6.349999999999999600, 0.05000000000000000300 ) ) ;
#61 = EDGE_CURVE ( 'NONE', #171, #232, #111, .T. ) ;
#62 = DIRECTION ( 'NONE',  ( -0.0000000000000000000, -0.0000000000000000000, -1.000000000000000000 ) ) ;
#63 =( NAMED_UNIT ( * ) SI_UNIT ( $, .STERADIAN. ) SOLID_ANGLE_UNIT ( ) );
#64 = APPROVAL_DATE_TIME ( #35, #114 ) ;
#65 = DIRECTION ( 'NONE',  ( -1.000000000000000000, 0.0000000000000000000, -0.0000000000000000000 ) ) ;
#66 = APPLICATION_CONTEXT ( 'configuration controlled 3d designs of mechanical parts and assemblies' ) ;
#67 = LINE ( 'NONE', #100, #162 ) ;
#68 = PERSON ( 'UNSPECIFIED', 'UNSPECIFIED', 'UNSPECIFIED', ('UNSPECIFIED'), ('UNSPECIFIED'), ('UNSPECIFIED') ) ;
#69 = LOCAL_TIME ( 15, 59, 56.00000000000000000, #121 ) ;
#70 = COORDINATED_UNIVERSAL_TIME_OFFSET ( 5, 0, .BEHIND. ) ;
#71 = CC_DESIGN_SECURITY_CLASSIFICATION ( #14, ( #205 ) ) ;
#72 = ADVANCED_FACE ( 'NONE', ( #77 ), #3, .F. ) ;
#73 = AXIS2_PLACEMENT_3D ( 'NONE', #44, #173, #119 ) ;
#74 = ORIENTED_EDGE ( 'NONE', *, *, #75, .T. ) ;
#75 = EDGE_CURVE ( 'NONE', #160, #36, #99, .T. ) ;
#76 = CALENDAR_DATE ( 2019, 23, 1 ) ;
#77 = FACE_OUTER_BOUND ( 'NONE', #39, .T. ) ;
#78 = ORIENTED_EDGE ( 'NONE', *, *, #25, .F. ) ;
#79 = PERSON_AND_ORGANIZATION ( #68, #184 ) ;
#80 = CARTESIAN_POINT ( 'NONE',  ( 63.50000000000000000, -6.349999999999999600, 0.05000000000000000300 ) ) ;
#81 = FACE_OUTER_BOUND ( 'NONE', #18, .T. ) ;
#82 = PLANE ( 'NONE',  #163 ) ;
#83 = DIRECTION ( 'NONE',  ( -0.0000000000000000000, -0.0000000000000000000, -1.000000000000000000 ) ) ;
#84 = APPLICATION_PROTOCOL_DEFINITION ( 'international standard', 'config_control_design', 1994, #157 ) ;
#85 = CARTESIAN_POINT ( 'NONE',  ( -63.50000000000000000, -6.349999999999999600, -0.05000000000000000300 ) ) ;
#86 = ORIENTED_EDGE ( 'NONE', *, *, #235, .T. ) ;
#87 = DIRECTION ( 'NONE',  ( 1.000000000000000000, 0.0000000000000000000, 0.0000000000000000000 ) ) ;
#88 = PERSON_AND_ORGANIZATION_ROLE ( 'classification_officer' ) ;
#89 = PERSON_AND_ORGANIZATION_ROLE ( 'creator' ) ;
#90 = VECTOR ( 'NONE', #24, 1000.000000000000000 ) ;
#91 = AXIS2_PLACEMENT_3D ( 'NONE', #139, #22, #150 ) ;
#92 = EDGE_CURVE ( 'NONE', #232, #15, #143, .T. ) ;
#93 = APPROVAL ( #129, 'UNSPECIFIED' ) ;
#94 = PRODUCT ( 'Web Model 12312_12312', 'Web Model 12312_12312', '', ( #107 ) ) ;
#95 = CC_DESIGN_PERSON_AND_ORGANIZATION_ASSIGNMENT ( #29, #155, ( #94 ) ) ;
#96 = VECTOR ( 'NONE', #51, 1000.000000000000000 ) ;
#97 = AXIS2_PLACEMENT_3D ( 'NONE', #181, #48, #87 ) ;
#98 = EDGE_LOOP ( 'NONE', ( #86, #221, #78, #23 ) ) ;
#99 = LINE ( 'NONE', #45, #137 ) ;
#100 = CARTESIAN_POINT ( 'NONE',  ( 63.50000000000000000, -6.349999999999999600, 0.05000000000000000300 ) ) ;
#101 = PLANE ( 'NONE',  #73 ) ;
#102 = UNCERTAINTY_MEASURE_WITH_UNIT (LENGTH_MEASURE( 1.000000000000000100E-005 ), #228, 'distance_accuracy_value', 'NONE');
#103 = LINE ( 'NONE', #174, #31 ) ;
#104 = CARTESIAN_POINT ( 'NONE',  ( -63.50000000000000000, 6.349999999999999600, -0.05000000000000000300 ) ) ;
#105 = CARTESIAN_POINT ( 'NONE',  ( -63.50000000000000000, 6.349999999999999600, -0.05000000000000000300 ) ) ;
#106 = DIRECTION ( 'NONE',  ( -0.0000000000000000000, -0.0000000000000000000, -1.000000000000000000 ) ) ;
#107 = MECHANICAL_CONTEXT ( 'NONE', #66, 'mechanical' ) ;
#108 = CARTESIAN_POINT ( 'NONE',  ( -63.50000000000000000, 6.349999999999999600, 0.05000000000000000300 ) ) ;
#109 = DIRECTION ( 'NONE',  ( 0.0000000000000000000, 0.0000000000000000000, -1.000000000000000000 ) ) ;
#110 = CC_DESIGN_PERSON_AND_ORGANIZATION_ASSIGNMENT ( #20, #89, ( #205 ) ) ;
#111 = LINE ( 'NONE', #59, #192 ) ;
#112 = ORIENTED_EDGE ( 'NONE', *, *, #206, .T. ) ;
#113 = PERSON_AND_ORGANIZATION ( #68, #184 ) ;
#114 = APPROVAL ( #200, 'UNSPECIFIED' ) ;
#115 = PRODUCT_RELATED_PRODUCT_CATEGORY ( 'detail', '', ( #94 ) ) ;
#116 = ADVANCED_FACE ( 'NONE', ( #81 ), #82, .F. ) ;
#117 = EDGE_CURVE ( 'NONE', #236, #36, #5, .T. ) ;
#118 = LOCAL_TIME ( 15, 59, 56.00000000000000000, #70 ) ;
#119 = DIRECTION ( 'NONE',  ( 0.0000000000000000000, -0.0000000000000000000, -1.000000000000000000 ) ) ;
#120 = VECTOR ( 'NONE', #154, 1000.000000000000000 ) ;
#121 = COORDINATED_UNIVERSAL_TIME_OFFSET ( 5, 0, .BEHIND. ) ;
#122 = APPROVAL_DATE_TIME ( #220, #202 ) ;
#123 = DIRECTION ( 'NONE',  ( 0.0000000000000000000, -0.0000000000000000000, 1.000000000000000000 ) ) ;
#124 = VECTOR ( 'NONE', #62, 1000.000000000000000 ) ;
#125 = CARTESIAN_POINT ( 'NONE',  ( -63.50000000000000000, -6.349999999999999600, 0.05000000000000000300 ) ) ;
#126 = CARTESIAN_POINT ( 'NONE',  ( 0.0000000000000000000, 0.0000000000000000000, -0.05000000000000000300 ) ) ;
#127 = ORIENTED_EDGE ( 'NONE', *, *, #151, .T. ) ;
#128 = PERSON_AND_ORGANIZATION ( #68, #184 ) ;
#129 = APPROVAL_STATUS ( 'not_yet_approved' ) ;
#130 = AXIS2_PLACEMENT_3D ( 'NONE', #217, #109, #30 ) ;
#131 = EDGE_LOOP ( 'NONE', ( #234, #183, #145, #219 ) ) ;
#132 = COORDINATED_UNIVERSAL_TIME_OFFSET ( 5, 0, .BEHIND. ) ;
#133 = EDGE_CURVE ( 'NONE', #171, #141, #103, .T. ) ;
#134 = ADVANCED_FACE ( 'NONE', ( #19 ), #53, .F. ) ;
#135 = ORIENTED_EDGE ( 'NONE', *, *, #21, .F. ) ;
#136 = ORIENTED_EDGE ( 'NONE', *, *, #166, .F. ) ;
#137 = VECTOR ( 'NONE', #4, 1000.000000000000000 ) ;
#138 = DATE_AND_TIME ( #42, #7 ) ;
#139 = CARTESIAN_POINT ( 'NONE',  ( -63.50000000000000000, -6.349999999999999600, 0.05000000000000000300 ) ) ;
#140 = CARTESIAN_POINT ( 'NONE',  ( -63.50000000000000000, -6.349999999999999600, -0.05000000000000000300 ) ) ;
#141 = VERTEX_POINT ( 'NONE', #104 ) ;
#142 = DATE_AND_TIME ( #156, #118 ) ;
#143 = LINE ( 'NONE', #26, #90 ) ;
#144 = SECURITY_CLASSIFICATION_LEVEL ( 'unclassified' ) ;
#145 = ORIENTED_EDGE ( 'NONE', *, *, #61, .T. ) ;
#146 = DIRECTION ( 'NONE',  ( 0.0000000000000000000, 0.0000000000000000000, -1.000000000000000000 ) ) ;
#147 = APPROVAL_ROLE ( '' ) ;
#148 = LINE ( 'NONE', #105, #96 ) ;
#149 = ORIENTED_EDGE ( 'NONE', *, *, #61, .F. ) ;
#150 = DIRECTION ( 'NONE',  ( 0.0000000000000000000, 0.0000000000000000000, -1.000000000000000000 ) ) ;
#151 = EDGE_CURVE ( 'NONE', #141, #57, #27, .T. ) ;
#152 = DIRECTION ( 'NONE',  ( -1.000000000000000000, 0.0000000000000000000, 0.0000000000000000000 ) ) ;
#153 = ORIENTED_EDGE ( 'NONE', *, *, #206, .F. ) ;
#154 = DIRECTION ( 'NONE',  ( 1.000000000000000000, 0.0000000000000000000, 0.0000000000000000000 ) ) ;
#155 = PERSON_AND_ORGANIZATION_ROLE ( 'design_owner' ) ;
#156 = CALENDAR_DATE ( 2019, 23, 1 ) ;
#157 = APPLICATION_CONTEXT ( 'configuration controlled 3d designs of mechanical parts and assemblies' ) ;
#158 = CARTESIAN_POINT ( 'NONE',  ( 63.50000000000000000, -6.349999999999999600, 0.05000000000000000300 ) ) ;
#159 = APPROVAL_ROLE ( '' ) ;
#160 = VERTEX_POINT ( 'NONE', #230 ) ;
#161 = AXIS2_PLACEMENT_3D ( 'NONE', #126, #146, #65 ) ;
#162 = VECTOR ( 'NONE', #227, 1000.000000000000000 ) ;
#163 = AXIS2_PLACEMENT_3D ( 'NONE', #212, #152, #46 ) ;
#164 = CALENDAR_DATE ( 2019, 23, 1 ) ;
#165 = ADVANCED_FACE ( 'NONE', ( #203 ), #201, .T. ) ;
#166 = EDGE_CURVE ( 'NONE', #15, #236, #13, .T. ) ;
#167 = ORIENTED_EDGE ( 'NONE', *, *, #75, .F. ) ;
#168 = PERSON_AND_ORGANIZATION ( #68, #184 ) ;
#169 = ORIENTED_EDGE ( 'NONE', *, *, #117, .F. ) ;
#170 = AXIS2_PLACEMENT_3D ( 'NONE', #231, #12, #123 ) ;
#171 = VERTEX_POINT ( 'NONE', #108 ) ;
#172 = APPROVAL_PERSON_ORGANIZATION ( #175, #202, #159 ) ;
#173 = DIRECTION ( 'NONE',  ( 0.0000000000000000000, -1.000000000000000000, 0.0000000000000000000 ) ) ;
#174 = CARTESIAN_POINT ( 'NONE',  ( -63.50000000000000000, 6.349999999999999600, 0.05000000000000000300 ) ) ;
#175 = PERSON_AND_ORGANIZATION ( #68, #184 ) ;
#176 = APPLICATION_PROTOCOL_DEFINITION ( 'international standard', 'config_control_design', 1994, #66 ) ;
#177 = EDGE_LOOP ( 'NONE', ( #187, #33, #32, #112 ) ) ;
#178 = DATE_TIME_ROLE ( 'creation_date' ) ;
#179 =( NAMED_UNIT ( * ) PLANE_ANGLE_UNIT ( ) SI_UNIT ( $, .RADIAN. ) );
#180 = CARTESIAN_POINT ( 'NONE',  ( 63.50000000000000000, 6.349999999999999600, 0.05000000000000000300 ) ) ;
#181 = CARTESIAN_POINT ( 'NONE',  ( 0.0000000000000000000, 0.0000000000000000000, 0.0000000000000000000 ) ) ;
#182 = LINE ( 'NONE', #140, #120 ) ;
#183 = ORIENTED_EDGE ( 'NONE', *, *, #25, .T. ) ;
#184 = ORGANIZATION ( 'UNSPECIFIED', 'UNSPECIFIED', '' ) ;
#185 = CC_DESIGN_APPROVAL ( #114, ( #214 ) ) ;
#186 = VECTOR ( 'NONE', #52, 1000.000000000000000 ) ;
#187 = ORIENTED_EDGE ( 'NONE', *, *, #21, .T. ) ;
#188 = LOCAL_TIME ( 15, 59, 56.00000000000000000, #222 ) ;
#189 = LINE ( 'NONE', #60, #213 ) ;
#190 = PERSON_AND_ORGANIZATION ( #68, #184 ) ;
#191 = DIRECTION ( 'NONE',  ( -0.0000000000000000000, -1.000000000000000000, -0.0000000000000000000 ) ) ;
#192 = VECTOR ( 'NONE', #191, 1000.000000000000000 ) ;
#193 = MANIFOLD_SOLID_BREP ( 'Boss-Extrude1', #208 ) ;
#194 = CARTESIAN_POINT ( 'NONE',  ( -63.50000000000000000, -6.349999999999999600, -0.05000000000000000300 ) ) ;
#195 = CARTESIAN_POINT ( 'NONE',  ( 63.50000000000000000, 6.349999999999999600, -0.05000000000000000300 ) ) ;
#196 = VECTOR ( 'NONE', #106, 1000.000000000000000 ) ;
#197 = ORIENTED_EDGE ( 'NONE', *, *, #133, .T. ) ;
#198 = ORIENTED_EDGE ( 'NONE', *, *, #235, .F. ) ;
#199 = CC_DESIGN_PERSON_AND_ORGANIZATION_ASSIGNMENT ( #168, #49, ( #214 ) ) ;
#200 = APPROVAL_STATUS ( 'not_yet_approved' ) ;
#201 = PLANE ( 'NONE',  #161 ) ;
#202 = APPROVAL ( #6, 'UNSPECIFIED' ) ;
#203 = FACE_OUTER_BOUND ( 'NONE', #10, .T. ) ;
#204 = ORIENTED_EDGE ( 'NONE', *, *, #151, .F. ) ;
#205 = PRODUCT_DEFINITION_FORMATION_WITH_SPECIFIED_SOURCE ( 'ANY', '', #94, .NOT_KNOWN. ) ;
#206 = EDGE_CURVE ( 'NONE', #232, #57, #55, .T. ) ;
#207 = VECTOR ( 'NONE', #233, 1000.000000000000000 ) ;
#208 = CLOSED_SHELL ( 'NONE', ( #116, #17, #72, #223, #134, #165 ) ) ;
#209 = APPROVAL_PERSON_ORGANIZATION ( #79, #114, #28 ) ;
#210 = DIRECTION ( 'NONE',  ( -1.000000000000000000, -0.0000000000000000000, -0.0000000000000000000 ) ) ;
#211 = CALENDAR_DATE ( 2019, 23, 1 ) ;
#212 = CARTESIAN_POINT ( 'NONE',  ( 63.50000000000000000, -6.349999999999999600, 0.05000000000000000300 ) ) ;
#213 = VECTOR ( 'NONE', #210, 1000.000000000000000 ) ;
#214 = PRODUCT_DEFINITION ( 'UNKNOWN', '', #205, #218 ) ;
#215 = PLANE ( 'NONE',  #170 ) ;
#216 = DATE_TIME_ROLE ( 'classification_date' ) ;
#217 = CARTESIAN_POINT ( 'NONE',  ( 0.0000000000000000000, 0.0000000000000000000, 0.05000000000000000300 ) ) ;
#218 = DESIGN_CONTEXT ( 'detailed design', #157, 'design' ) ;
#219 = ORIENTED_EDGE ( 'NONE', *, *, #92, .T. ) ;
#220 = DATE_AND_TIME ( #76, #237 ) ;
#221 = ORIENTED_EDGE ( 'NONE', *, *, #133, .F. ) ;
#222 = COORDINATED_UNIVERSAL_TIME_OFFSET ( 5, 0, .BEHIND. ) ;
#223 = ADVANCED_FACE ( 'NONE', ( #224 ), #215, .F. ) ;
#224 = FACE_OUTER_BOUND ( 'NONE', #177, .T. ) ;
#225 = CARTESIAN_POINT ( 'NONE',  ( 63.50000000000000000, 6.349999999999999600, 0.05000000000000000300 ) ) ;
#226 = DATE_AND_TIME ( #211, #69 ) ;
#227 = DIRECTION ( 'NONE',  ( -0.0000000000000000000, -0.0000000000000000000, -1.000000000000000000 ) ) ;
#228 =( LENGTH_UNIT ( ) NAMED_UNIT ( * ) SI_UNIT ( .MILLI., .METRE. ) );
#229 = CARTESIAN_POINT ( 'NONE',  ( -63.50000000000000000, -6.349999999999999600, 0.05000000000000000300 ) ) ;
#230 = CARTESIAN_POINT ( 'NONE',  ( 63.50000000000000000, -6.349999999999999600, -0.05000000000000000300 ) ) ;
#231 = CARTESIAN_POINT ( 'NONE',  ( -63.50000000000000000, -6.349999999999999600, 0.05000000000000000300 ) ) ;
#232 = VERTEX_POINT ( 'NONE', #229 ) ;
#233 = DIRECTION ( 'NONE',  ( 0.0000000000000000000, 1.000000000000000000, 0.0000000000000000000 ) ) ;
#234 = ORIENTED_EDGE ( 'NONE', *, *, #166, .T. ) ;
#235 = EDGE_CURVE ( 'NONE', #36, #141, #148, .T. ) ;
#236 = VERTEX_POINT ( 'NONE', #180 ) ;
#237 = LOCAL_TIME ( 15, 59, 56.00000000000000000, #132 ) ;
ENDSEC;
END-ISO-10303-21;
