ISO-10303-21;
HEADER;
FILE_DESCRIPTION (( 'STEP AP203' ),
    '1' );
FILE_NAME ('Web Model 47195.STEP',
    '2017-01-31T15:20:21',
    ( '' ),
    ( '' ),
    'SwSTEP 2.0',
    'SolidWorks 2016',
    '' );
FILE_SCHEMA (( 'CONFIG_CONTROL_DESIGN' ));
ENDSEC;

DATA;
#1 = EDGE_CURVE ( 'NONE', #90, #6, #123, .T. ) ;
#2 = APPROVAL_PERSON_ORGANIZATION ( #32, #81, #23 ) ;
#3 = APPROVAL_DATE_TIME ( #67, #83 ) ;
#4 = AXIS2_PLACEMENT_3D ( 'NONE', #13, #147, #100 ) ;
#5 = ADVANCED_FACE ( 'NONE', ( #99 ), #35, .T. ) ;
#6 = VERTEX_POINT ( 'NONE', #148 ) ;
#7 = CC_DESIGN_DATE_AND_TIME_ASSIGNMENT ( #80, #57, ( #54 ) ) ;
#8 = DATE_AND_TIME ( #170, #52 ) ;
#9 = ORIENTED_EDGE ( 'NONE', *, *, #1, .F. ) ;
#10 = CARTESIAN_POINT ( 'NONE',  ( 0.0000000000000000000, 0.0000000000000000000, -3.000000000000000000 ) ) ;
#11 = DIRECTION ( 'NONE',  ( 0.0000000000000000000, 0.0000000000000000000, 1.000000000000000000 ) ) ;
#12 = PERSON_AND_ORGANIZATION_ROLE ( 'creator' ) ;
#13 = CARTESIAN_POINT ( 'NONE',  ( 0.0000000000000000000, 0.0000000000000000000, 0.0000000000000000000 ) ) ;
#14 = VERTEX_POINT ( 'NONE', #76 ) ;
#15 = PRODUCT_DEFINITION_FORMATION_WITH_SPECIFIED_SOURCE ( 'ANY', '', #78, .NOT_KNOWN. ) ;
#16 = ADVANCED_BREP_SHAPE_REPRESENTATION ( 'Web Model 47195', ( #68, #136 ), #49 ) ;
#17 = CALENDAR_DATE ( 2017, 31, 1 ) ;
#18 = COORDINATED_UNIVERSAL_TIME_OFFSET ( 5, 0, .BEHIND. ) ;
#19 = ADVANCED_FACE ( 'NONE', ( #172 ), #124, .F. ) ;
#20 = ORGANIZATION ( 'UNSPECIFIED', 'UNSPECIFIED', '' ) ;
#21 = PERSON_AND_ORGANIZATION_ROLE ( 'creator' ) ;
#22 = CC_DESIGN_APPROVAL ( #81, ( #54 ) ) ;
#23 = APPROVAL_ROLE ( '' ) ;
#24 = UNCERTAINTY_MEASURE_WITH_UNIT (LENGTH_MEASURE( 1.000000000000000100E-005 ), #132, 'distance_accuracy_value', 'NONE');
#25 = CARTESIAN_POINT ( 'NONE',  ( -12.50000000000000000, 1.530808498934191500E-015, -3.000000000000000000 ) ) ;
#26 = SECURITY_CLASSIFICATION_LEVEL ( 'unclassified' ) ;
#27 = ORIENTED_EDGE ( 'NONE', *, *, #77, .T. ) ;
#28 = COORDINATED_UNIVERSAL_TIME_OFFSET ( 5, 0, .BEHIND. ) ;
#29 = FACE_OUTER_BOUND ( 'NONE', #70, .T. ) ;
#30 = DIRECTION ( 'NONE',  ( 1.000000000000000000, 0.0000000000000000000, 0.0000000000000000000 ) ) ;
#31 = AXIS2_PLACEMENT_3D ( 'NONE', #120, #134, #61 ) ;
#32 = PERSON_AND_ORGANIZATION ( #79, #20 ) ;
#33 = PERSON_AND_ORGANIZATION ( #79, #20 ) ;
#34 = CC_DESIGN_PERSON_AND_ORGANIZATION_ASSIGNMENT ( #41, #128, ( #59 ) ) ;
#35 = CYLINDRICAL_SURFACE ( 'NONE', #131, 12.50000000000000000 ) ;
#36 = CIRCLE ( 'NONE', #4, 12.50000000000000000 ) ;
#37 = LOCAL_TIME ( 10, 20, 21.00000000000000000, #168 ) ;
#38 = ADVANCED_FACE ( 'NONE', ( #29 ), #44, .T. ) ;
#39 = LOCAL_TIME ( 10, 20, 21.00000000000000000, #153 ) ;
#40 = CIRCLE ( 'NONE', #31, 12.50000000000000000 ) ;
#41 = PERSON_AND_ORGANIZATION ( #79, #20 ) ;
#42 = EDGE_CURVE ( 'NONE', #90, #14, #167, .T. ) ;
#43 = DIRECTION ( 'NONE',  ( 0.0000000000000000000, 0.0000000000000000000, 1.000000000000000000 ) ) ;
#44 = PLANE ( 'NONE',  #143 ) ;
#45 = EDGE_CURVE ( 'NONE', #119, #6, #36, .T. ) ;
#46 = LINE ( 'NONE', #88, #138 ) ;
#47 = PRODUCT_RELATED_PRODUCT_CATEGORY ( 'detail', '', ( #78 ) ) ;
#48 = DATE_AND_TIME ( #150, #37 ) ;
#49 =( GEOMETRIC_REPRESENTATION_CONTEXT ( 3 ) GLOBAL_UNCERTAINTY_ASSIGNED_CONTEXT ( ( #24 ) ) GLOBAL_UNIT_ASSIGNED_CONTEXT ( ( #132, #75, #98 ) ) REPRESENTATION_CONTEXT ( 'NONE', 'WORKASPACE' ) );
#50 = APPROVAL ( #126, 'UNSPECIFIED' ) ;
#51 = EDGE_CURVE ( 'NONE', #6, #119, #117, .T. ) ;
#52 = LOCAL_TIME ( 10, 20, 21.00000000000000000, #121 ) ;
#53 = DIRECTION ( 'NONE',  ( 0.0000000000000000000, 0.0000000000000000000, 1.000000000000000000 ) ) ;
#54 = PRODUCT_DEFINITION ( 'UNKNOWN', '', #15, #97 ) ;
#55 = CARTESIAN_POINT ( 'NONE',  ( 0.0000000000000000000, 0.0000000000000000000, -3.000000000000000000 ) ) ;
#56 = PERSON_AND_ORGANIZATION ( #79, #20 ) ;
#57 = DATE_TIME_ROLE ( 'creation_date' ) ;
#58 = EDGE_CURVE ( 'NONE', #14, #90, #40, .T. ) ;
#59 = SECURITY_CLASSIFICATION ( '', '', #26 ) ;
#60 = ORIENTED_EDGE ( 'NONE', *, *, #51, .T. ) ;
#61 = DIRECTION ( 'NONE',  ( 1.000000000000000000, 0.0000000000000000000, 0.0000000000000000000 ) ) ;
#62 = ORIENTED_EDGE ( 'NONE', *, *, #51, .F. ) ;
#63 = CARTESIAN_POINT ( 'NONE',  ( 0.0000000000000000000, 0.0000000000000000000, 0.0000000000000000000 ) ) ;
#64 = APPROVAL_ROLE ( '' ) ;
#65 = AXIS2_PLACEMENT_3D ( 'NONE', #55, #144, #159 ) ;
#66 = DIRECTION ( 'NONE',  ( 0.0000000000000000000, 0.0000000000000000000, 1.000000000000000000 ) ) ;
#67 = DATE_AND_TIME ( #86, #39 ) ;
#68 = MANIFOLD_SOLID_BREP ( 'Boss-Extrude1', #112 ) ;
#69 = CC_DESIGN_PERSON_AND_ORGANIZATION_ASSIGNMENT ( #109, #157, ( #78 ) ) ;
#70 = EDGE_LOOP ( 'NONE', ( #129, #60 ) ) ;
#71 = CC_DESIGN_APPROVAL ( #50, ( #59 ) ) ;
#72 = APPROVAL_PERSON_ORGANIZATION ( #105, #50, #113 ) ;
#73 = APPLICATION_PROTOCOL_DEFINITION ( 'international standard', 'config_control_design', 1994, #156 ) ;
#74 = DIRECTION ( 'NONE',  ( 0.0000000000000000000, 0.0000000000000000000, 1.000000000000000000 ) ) ;
#75 =( NAMED_UNIT ( * ) PLANE_ANGLE_UNIT ( ) SI_UNIT ( $, .RADIAN. ) );
#76 = CARTESIAN_POINT ( 'NONE',  ( 12.50000000000000000, 0.0000000000000000000, -3.000000000000000000 ) ) ;
#77 = EDGE_CURVE ( 'NONE', #14, #119, #46, .T. ) ;
#78 = PRODUCT ( 'Web Model 47195', 'Web Model 47195', '', ( #96 ) ) ;
#79 = PERSON ( 'UNSPECIFIED', 'UNSPECIFIED', 'UNSPECIFIED', ('UNSPECIFIED'), ('UNSPECIFIED'), ('UNSPECIFIED') ) ;
#80 = DATE_AND_TIME ( #108, #140 ) ;
#81 = APPROVAL ( #160, 'UNSPECIFIED' ) ;
#82 = PERSON_AND_ORGANIZATION ( #79, #20 ) ;
#83 = APPROVAL ( #85, 'UNSPECIFIED' ) ;
#84 = DIRECTION ( 'NONE',  ( 1.000000000000000000, 0.0000000000000000000, 0.0000000000000000000 ) ) ;
#85 = APPROVAL_STATUS ( 'not_yet_approved' ) ;
#86 = CALENDAR_DATE ( 2017, 31, 1 ) ;
#87 = DIRECTION ( 'NONE',  ( 0.0000000000000000000, 0.0000000000000000000, 1.000000000000000000 ) ) ;
#88 = CARTESIAN_POINT ( 'NONE',  ( 12.50000000000000000, 0.0000000000000000000, -3.000000000000000000 ) ) ;
#89 = DATE_TIME_ROLE ( 'classification_date' ) ;
#90 = VERTEX_POINT ( 'NONE', #125 ) ;
#91 = CYLINDRICAL_SURFACE ( 'NONE', #65, 12.50000000000000000 ) ;
#92 = VECTOR ( 'NONE', #149, 1000.000000000000000 ) ;
#93 = APPROVAL_DATE_TIME ( #158, #81 ) ;
#94 = EDGE_LOOP ( 'NONE', ( #103, #175, #115, #130 ) ) ;
#95 = LOCAL_TIME ( 10, 20, 21.00000000000000000, #28 ) ;
#96 = MECHANICAL_CONTEXT ( 'NONE', #156, 'mechanical' ) ;
#97 = DESIGN_CONTEXT ( 'detailed design', #111, 'design' ) ;
#98 =( NAMED_UNIT ( * ) SI_UNIT ( $, .STERADIAN. ) SOLID_ANGLE_UNIT ( ) );
#99 = FACE_OUTER_BOUND ( 'NONE', #94, .T. ) ;
#100 = DIRECTION ( 'NONE',  ( 1.000000000000000000, 0.0000000000000000000, 0.0000000000000000000 ) ) ;
#101 = DIRECTION ( 'NONE',  ( 1.000000000000000000, 0.0000000000000000000, 0.0000000000000000000 ) ) ;
#102 = APPROVAL_DATE_TIME ( #48, #50 ) ;
#103 = ORIENTED_EDGE ( 'NONE', *, *, #58, .T. ) ;
#104 = ORIENTED_EDGE ( 'NONE', *, *, #42, .F. ) ;
#105 = PERSON_AND_ORGANIZATION ( #79, #20 ) ;
#106 = CC_DESIGN_SECURITY_CLASSIFICATION ( #59, ( #15 ) ) ;
#107 = FACE_OUTER_BOUND ( 'NONE', #152, .T. ) ;
#108 = CALENDAR_DATE ( 2017, 31, 1 ) ;
#109 = PERSON_AND_ORGANIZATION ( #79, #20 ) ;
#110 = CC_DESIGN_DATE_AND_TIME_ASSIGNMENT ( #8, #89, ( #59 ) ) ;
#111 = APPLICATION_CONTEXT ( 'configuration controlled 3d designs of mechanical parts and assemblies' ) ;
#112 = CLOSED_SHELL ( 'NONE', ( #5, #155, #19, #38 ) ) ;
#113 = APPROVAL_ROLE ( '' ) ;
#114 = CARTESIAN_POINT ( 'NONE',  ( 0.0000000000000000000, 0.0000000000000000000, -3.000000000000000000 ) ) ;
#115 = ORIENTED_EDGE ( 'NONE', *, *, #45, .F. ) ;
#116 = CC_DESIGN_APPROVAL ( #83, ( #15 ) ) ;
#117 = CIRCLE ( 'NONE', #133, 12.50000000000000000 ) ;
#118 = APPROVAL_PERSON_ORGANIZATION ( #33, #83, #64 ) ;
#119 = VERTEX_POINT ( 'NONE', #122 ) ;
#120 = CARTESIAN_POINT ( 'NONE',  ( 0.0000000000000000000, 0.0000000000000000000, -3.000000000000000000 ) ) ;
#121 = COORDINATED_UNIVERSAL_TIME_OFFSET ( 5, 0, .BEHIND. ) ;
#122 = CARTESIAN_POINT ( 'NONE',  ( 12.50000000000000000, 0.0000000000000000000, 0.0000000000000000000 ) ) ;
#123 = LINE ( 'NONE', #25, #92 ) ;
#124 = PLANE ( 'NONE',  #161 ) ;
#125 = CARTESIAN_POINT ( 'NONE',  ( -12.50000000000000000, 1.530808498934191500E-015, -3.000000000000000000 ) ) ;
#126 = APPROVAL_STATUS ( 'not_yet_approved' ) ;
#127 = ORIENTED_EDGE ( 'NONE', *, *, #42, .T. ) ;
#128 = PERSON_AND_ORGANIZATION_ROLE ( 'classification_officer' ) ;
#129 = ORIENTED_EDGE ( 'NONE', *, *, #45, .T. ) ;
#130 = ORIENTED_EDGE ( 'NONE', *, *, #77, .F. ) ;
#131 = AXIS2_PLACEMENT_3D ( 'NONE', #114, #87, #101 ) ;
#132 =( LENGTH_UNIT ( ) NAMED_UNIT ( * ) SI_UNIT ( .MILLI., .METRE. ) );
#133 = AXIS2_PLACEMENT_3D ( 'NONE', #63, #53, #84 ) ;
#134 = DIRECTION ( 'NONE',  ( 0.0000000000000000000, 0.0000000000000000000, 1.000000000000000000 ) ) ;
#135 = DIRECTION ( 'NONE',  ( 1.000000000000000000, 0.0000000000000000000, 0.0000000000000000000 ) ) ;
#136 = AXIS2_PLACEMENT_3D ( 'NONE', #146, #142, #135 ) ;
#137 = DIRECTION ( 'NONE',  ( 1.000000000000000000, 0.0000000000000000000, -0.0000000000000000000 ) ) ;
#138 = VECTOR ( 'NONE', #74, 1000.000000000000000 ) ;
#139 = CC_DESIGN_PERSON_AND_ORGANIZATION_ASSIGNMENT ( #141, #12, ( #15 ) ) ;
#140 = LOCAL_TIME ( 10, 20, 21.00000000000000000, #18 ) ;
#141 = PERSON_AND_ORGANIZATION ( #79, #20 ) ;
#142 = DIRECTION ( 'NONE',  ( 0.0000000000000000000, 0.0000000000000000000, 1.000000000000000000 ) ) ;
#143 = AXIS2_PLACEMENT_3D ( 'NONE', #174, #43, #137 ) ;
#144 = DIRECTION ( 'NONE',  ( 0.0000000000000000000, 0.0000000000000000000, 1.000000000000000000 ) ) ;
#145 = ORIENTED_EDGE ( 'NONE', *, *, #58, .F. ) ;
#146 = CARTESIAN_POINT ( 'NONE',  ( 0.0000000000000000000, 0.0000000000000000000, 0.0000000000000000000 ) ) ;
#147 = DIRECTION ( 'NONE',  ( 0.0000000000000000000, 0.0000000000000000000, 1.000000000000000000 ) ) ;
#148 = CARTESIAN_POINT ( 'NONE',  ( -12.50000000000000000, 1.530808498934191500E-015, 0.0000000000000000000 ) ) ;
#149 = DIRECTION ( 'NONE',  ( 0.0000000000000000000, 0.0000000000000000000, 1.000000000000000000 ) ) ;
#150 = CALENDAR_DATE ( 2017, 31, 1 ) ;
#151 = CC_DESIGN_PERSON_AND_ORGANIZATION_ASSIGNMENT ( #82, #166, ( #15 ) ) ;
#152 = EDGE_LOOP ( 'NONE', ( #9, #127, #27, #62 ) ) ;
#153 = COORDINATED_UNIVERSAL_TIME_OFFSET ( 5, 0, .BEHIND. ) ;
#154 = EDGE_LOOP ( 'NONE', ( #145, #104 ) ) ;
#155 = ADVANCED_FACE ( 'NONE', ( #107 ), #91, .T. ) ;
#156 = APPLICATION_CONTEXT ( 'configuration controlled 3d designs of mechanical parts and assemblies' ) ;
#157 = PERSON_AND_ORGANIZATION_ROLE ( 'design_owner' ) ;
#158 = DATE_AND_TIME ( #17, #95 ) ;
#159 = DIRECTION ( 'NONE',  ( 1.000000000000000000, 0.0000000000000000000, 0.0000000000000000000 ) ) ;
#160 = APPROVAL_STATUS ( 'not_yet_approved' ) ;
#161 = AXIS2_PLACEMENT_3D ( 'NONE', #164, #66, #163 ) ;
#162 = APPLICATION_PROTOCOL_DEFINITION ( 'international standard', 'config_control_design', 1994, #111 ) ;
#163 = DIRECTION ( 'NONE',  ( 1.000000000000000000, 0.0000000000000000000, -0.0000000000000000000 ) ) ;
#164 = CARTESIAN_POINT ( 'NONE',  ( 0.0000000000000000000, 0.0000000000000000000, -3.000000000000000000 ) ) ;
#165 = AXIS2_PLACEMENT_3D ( 'NONE', #10, #11, #30 ) ;
#166 = PERSON_AND_ORGANIZATION_ROLE ( 'design_supplier' ) ;
#167 = CIRCLE ( 'NONE', #165, 12.50000000000000000 ) ;
#168 = COORDINATED_UNIVERSAL_TIME_OFFSET ( 5, 0, .BEHIND. ) ;
#169 = PRODUCT_DEFINITION_SHAPE ( 'NONE', 'NONE',  #54 ) ;
#170 = CALENDAR_DATE ( 2017, 31, 1 ) ;
#171 = CC_DESIGN_PERSON_AND_ORGANIZATION_ASSIGNMENT ( #56, #21, ( #54 ) ) ;
#172 = FACE_OUTER_BOUND ( 'NONE', #154, .T. ) ;
#173 = SHAPE_DEFINITION_REPRESENTATION ( #169, #16 ) ;
#174 = CARTESIAN_POINT ( 'NONE',  ( 0.0000000000000000000, 0.0000000000000000000, 0.0000000000000000000 ) ) ;
#175 = ORIENTED_EDGE ( 'NONE', *, *, #1, .T. ) ;
ENDSEC;
END-ISO-10303-21;
