ISO-10303-21;
HEADER;
FILE_DESCRIPTION (( 'STEP AP203' ),
    '1' );
FILE_NAME ('Web Model 49754.STEP',
    '2017-01-31T15:23:56',
    ( '' ),
    ( '' ),
    'SwSTEP 2.0',
    'SolidWorks 2016',
    '' );
FILE_SCHEMA (( 'CONFIG_CONTROL_DESIGN' ));
ENDSEC;

DATA;
#1 = ORIENTED_EDGE ( 'NONE', *, *, #72, .T. ) ;
#2 = CC_DESIGN_PERSON_AND_ORGANIZATION_ASSIGNMENT ( #33, #236, ( #211 ) ) ;
#3 = PERSON_AND_ORGANIZATION ( #160, #76 ) ;
#4 = DATE_AND_TIME ( #80, #231 ) ;
#5 = VECTOR ( 'NONE', #132, 1000.000000000000000 ) ;
#6 = LINE ( 'NONE', #159, #71 ) ;
#7 = CARTESIAN_POINT ( 'NONE',  ( 3.000000000000000000, -17.50000000000000000, 17.50000000000000000 ) ) ;
#8 = CARTESIAN_POINT ( 'NONE',  ( 3.000000000000000000, 17.50000000000000000, 17.50000000000000000 ) ) ;
#9 = DIRECTION ( 'NONE',  ( 0.0000000000000000000, 0.0000000000000000000, -1.000000000000000000 ) ) ;
#10 = PLANE ( 'NONE',  #203 ) ;
#11 = VECTOR ( 'NONE', #77, 1000.000000000000000 ) ;
#12 = AXIS2_PLACEMENT_3D ( 'NONE', #156, #96, #175 ) ;
#13 = DIRECTION ( 'NONE',  ( 0.0000000000000000000, 0.0000000000000000000, -1.000000000000000000 ) ) ;
#14 = DIRECTION ( 'NONE',  ( -1.000000000000000000, 0.0000000000000000000, -0.0000000000000000000 ) ) ;
#15 = APPROVAL_ROLE ( '' ) ;
#16 = DIRECTION ( 'NONE',  ( 1.000000000000000000, 0.0000000000000000000, 0.0000000000000000000 ) ) ;
#17 = VERTEX_POINT ( 'NONE', #26 ) ;
#18 = AXIS2_PLACEMENT_3D ( 'NONE', #95, #195, #16 ) ;
#19 = ORIENTED_EDGE ( 'NONE', *, *, #47, .T. ) ;
#20 = VERTEX_POINT ( 'NONE', #213 ) ;
#21 = APPROVAL_DATE_TIME ( #74, #206 ) ;
#22 = LINE ( 'NONE', #42, #212 ) ;
#23 = AXIS2_PLACEMENT_3D ( 'NONE', #198, #112, #45 ) ;
#24 = DIRECTION ( 'NONE',  ( -1.000000000000000000, -0.0000000000000000000, -0.0000000000000000000 ) ) ;
#25 = CARTESIAN_POINT ( 'NONE',  ( 3.000000000000000000, 17.50000000000000000, -17.50000000000000000 ) ) ;
#26 = CARTESIAN_POINT ( 'NONE',  ( 0.0000000000000000000, 17.50000000000000000, -17.50000000000000000 ) ) ;
#27 = LINE ( 'NONE', #193, #36 ) ;
#28 = CARTESIAN_POINT ( 'NONE',  ( 3.000000000000000000, -17.50000000000000000, -17.50000000000000000 ) ) ;
#29 = MECHANICAL_CONTEXT ( 'NONE', #139, 'mechanical' ) ;
#30 = SHAPE_DEFINITION_REPRESENTATION ( #219, #124 ) ;
#31 = VERTEX_POINT ( 'NONE', #164 ) ;
#32 = APPROVAL_STATUS ( 'not_yet_approved' ) ;
#33 = PERSON_AND_ORGANIZATION ( #160, #76 ) ;
#34 = VECTOR ( 'NONE', #152, 1000.000000000000000 ) ;
#35 = CALENDAR_DATE ( 2017, 31, 1 ) ;
#36 = VECTOR ( 'NONE', #166, 1000.000000000000000 ) ;
#37 = CLOSED_SHELL ( 'NONE', ( #229, #110, #91, #136, #173, #215 ) ) ;
#38 = EDGE_CURVE ( 'NONE', #59, #17, #207, .T. ) ;
#39 = CARTESIAN_POINT ( 'NONE',  ( 3.000000000000000000, 17.50000000000000000, -17.50000000000000000 ) ) ;
#40 = COORDINATED_UNIVERSAL_TIME_OFFSET ( 5, 0, .BEHIND. ) ;
#41 = CARTESIAN_POINT ( 'NONE',  ( 3.000000000000000000, -17.50000000000000000, 17.50000000000000000 ) ) ;
#42 = CARTESIAN_POINT ( 'NONE',  ( 3.000000000000000000, -17.50000000000000000, 17.50000000000000000 ) ) ;
#43 = CC_DESIGN_PERSON_AND_ORGANIZATION_ASSIGNMENT ( #199, #61, ( #183 ) ) ;
#44 = ORIENTED_EDGE ( 'NONE', *, *, #146, .T. ) ;
#45 = DIRECTION ( 'NONE',  ( 0.0000000000000000000, 0.0000000000000000000, -1.000000000000000000 ) ) ;
#46 = PERSON_AND_ORGANIZATION_ROLE ( 'creator' ) ;
#47 = EDGE_CURVE ( 'NONE', #227, #59, #117, .T. ) ;
#48 = CALENDAR_DATE ( 2017, 31, 1 ) ;
#49 = CC_DESIGN_APPROVAL ( #206, ( #221 ) ) ;
#50 = LINE ( 'NONE', #111, #154 ) ;
#51 = CC_DESIGN_DATE_AND_TIME_ASSIGNMENT ( #4, #116, ( #221 ) ) ;
#52 = PERSON_AND_ORGANIZATION ( #160, #76 ) ;
#53 = ORIENTED_EDGE ( 'NONE', *, *, #57, .F. ) ;
#54 = EDGE_LOOP ( 'NONE', ( #162, #105, #85, #169 ) ) ;
#55 = CARTESIAN_POINT ( 'NONE',  ( 0.0000000000000000000, -17.50000000000000000, 17.50000000000000000 ) ) ;
#56 = CARTESIAN_POINT ( 'NONE',  ( 3.000000000000000000, 17.50000000000000000, -17.50000000000000000 ) ) ;
#57 = EDGE_CURVE ( 'NONE', #67, #20, #27, .T. ) ;
#58 = LOCAL_TIME ( 10, 23, 56.00000000000000000, #65 ) ;
#59 = VERTEX_POINT ( 'NONE', #228 ) ;
#60 = DIRECTION ( 'NONE',  ( -0.0000000000000000000, -0.0000000000000000000, 1.000000000000000000 ) ) ;
#61 = PERSON_AND_ORGANIZATION_ROLE ( 'design_owner' ) ;
#62 = PERSON_AND_ORGANIZATION_ROLE ( 'creator' ) ;
#63 = ORIENTED_EDGE ( 'NONE', *, *, #131, .T. ) ;
#64 = PLANE ( 'NONE',  #12 ) ;
#65 = COORDINATED_UNIVERSAL_TIME_OFFSET ( 5, 0, .BEHIND. ) ;
#66 = LINE ( 'NONE', #90, #181 ) ;
#67 = VERTEX_POINT ( 'NONE', #130 ) ;
#68 = CC_DESIGN_PERSON_AND_ORGANIZATION_ASSIGNMENT ( #140, #155, ( #221 ) ) ;
#69 = UNCERTAINTY_MEASURE_WITH_UNIT (LENGTH_MEASURE( 1.000000000000000100E-005 ), #178, 'distance_accuracy_value', 'NONE');
#70 = CALENDAR_DATE ( 2017, 31, 1 ) ;
#71 = VECTOR ( 'NONE', #135, 1000.000000000000000 ) ;
#72 = EDGE_CURVE ( 'NONE', #31, #227, #120, .T. ) ;
#73 = DESIGN_CONTEXT ( 'detailed design', #234, 'design' ) ;
#74 = DATE_AND_TIME ( #123, #58 ) ;
#75 = EDGE_CURVE ( 'NONE', #86, #17, #66, .T. ) ;
#76 = ORGANIZATION ( 'UNSPECIFIED', 'UNSPECIFIED', '' ) ;
#77 = DIRECTION ( 'NONE',  ( -0.0000000000000000000, 1.000000000000000000, -0.0000000000000000000 ) ) ;
#78 = DIRECTION ( 'NONE',  ( -0.0000000000000000000, 1.000000000000000000, -0.0000000000000000000 ) ) ;
#79 = APPLICATION_PROTOCOL_DEFINITION ( 'international standard', 'config_control_design', 1994, #139 ) ;
#80 = CALENDAR_DATE ( 2017, 31, 1 ) ;
#81 = COORDINATED_UNIVERSAL_TIME_OFFSET ( 5, 0, .BEHIND. ) ;
#82 = ORIENTED_EDGE ( 'NONE', *, *, #75, .T. ) ;
#83 = AXIS2_PLACEMENT_3D ( 'NONE', #158, #115, #14 ) ;
#84 = APPROVAL_DATE_TIME ( #184, #176 ) ;
#85 = ORIENTED_EDGE ( 'NONE', *, *, #97, .F. ) ;
#86 = VERTEX_POINT ( 'NONE', #39 ) ;
#87 = AXIS2_PLACEMENT_3D ( 'NONE', #8, #107, #230 ) ;
#88 = CARTESIAN_POINT ( 'NONE',  ( 0.0000000000000000000, 17.50000000000000000, 17.50000000000000000 ) ) ;
#89 = COORDINATED_UNIVERSAL_TIME_OFFSET ( 5, 0, .BEHIND. ) ;
#90 = CARTESIAN_POINT ( 'NONE',  ( 3.000000000000000000, 17.50000000000000000, -17.50000000000000000 ) ) ;
#91 = ADVANCED_FACE ( 'NONE', ( #126 ), #209, .F. ) ;
#92 = PERSON_AND_ORGANIZATION ( #160, #76 ) ;
#93 = CARTESIAN_POINT ( 'NONE',  ( 0.0000000000000000000, 17.50000000000000000, -17.50000000000000000 ) ) ;
#94 = ORIENTED_EDGE ( 'NONE', *, *, #118, .F. ) ;
#95 = CARTESIAN_POINT ( 'NONE',  ( 0.0000000000000000000, 0.0000000000000000000, 0.0000000000000000000 ) ) ;
#96 = DIRECTION ( 'NONE',  ( 1.000000000000000000, 0.0000000000000000000, 0.0000000000000000000 ) ) ;
#97 = EDGE_CURVE ( 'NONE', #161, #86, #202, .T. ) ;
#98 = FACE_OUTER_BOUND ( 'NONE', #134, .T. ) ;
#99 = DATE_TIME_ROLE ( 'creation_date' ) ;
#100 = PLANE ( 'NONE',  #83 ) ;
#101 = APPROVAL_DATE_TIME ( #147, #122 ) ;
#102 = LINE ( 'NONE', #28, #197 ) ;
#103 = EDGE_CURVE ( 'NONE', #20, #227, #109, .T. ) ;
#104 = ORIENTED_EDGE ( 'NONE', *, *, #144, .F. ) ;
#105 = ORIENTED_EDGE ( 'NONE', *, *, #75, .F. ) ;
#106 = PRODUCT_DEFINITION ( 'UNKNOWN', '', #211, #73 ) ;
#107 = DIRECTION ( 'NONE',  ( 0.0000000000000000000, -1.000000000000000000, 0.0000000000000000000 ) ) ;
#108 = COORDINATED_UNIVERSAL_TIME_OFFSET ( 5, 0, .BEHIND. ) ;
#109 = LINE ( 'NONE', #88, #5 ) ;
#110 = ADVANCED_FACE ( 'NONE', ( #151 ), #10, .F. ) ;
#111 = CARTESIAN_POINT ( 'NONE',  ( 3.000000000000000000, 17.50000000000000000, 17.50000000000000000 ) ) ;
#112 = DIRECTION ( 'NONE',  ( 1.000000000000000000, 0.0000000000000000000, 0.0000000000000000000 ) ) ;
#113 = APPROVAL_ROLE ( '' ) ;
#114 = ORIENTED_EDGE ( 'NONE', *, *, #97, .T. ) ;
#115 = DIRECTION ( 'NONE',  ( 0.0000000000000000000, 0.0000000000000000000, -1.000000000000000000 ) ) ;
#116 = DATE_TIME_ROLE ( 'classification_date' ) ;
#117 = LINE ( 'NONE', #55, #157 ) ;
#118 = EDGE_CURVE ( 'NONE', #17, #20, #220, .T. ) ;
#119 = DATE_AND_TIME ( #70, #205 ) ;
#120 = LINE ( 'NONE', #7, #186 ) ;
#121 = ORIENTED_EDGE ( 'NONE', *, *, #38, .F. ) ;
#122 = APPROVAL ( #235, 'UNSPECIFIED' ) ;
#123 = CALENDAR_DATE ( 2017, 31, 1 ) ;
#124 = ADVANCED_BREP_SHAPE_REPRESENTATION ( 'Web Model 49754', ( #171, #18 ), #189 ) ;
#125 = APPROVAL_PERSON_ORGANIZATION ( #180, #206, #137 ) ;
#126 = FACE_OUTER_BOUND ( 'NONE', #54, .T. ) ;
#127 = APPROVAL_PERSON_ORGANIZATION ( #52, #122, #15 ) ;
#128 = DIRECTION ( 'NONE',  ( 0.0000000000000000000, -0.0000000000000000000, 1.000000000000000000 ) ) ;
#129 = ORIENTED_EDGE ( 'NONE', *, *, #47, .F. ) ;
#130 = CARTESIAN_POINT ( 'NONE',  ( 3.000000000000000000, 17.50000000000000000, 17.50000000000000000 ) ) ;
#131 = EDGE_CURVE ( 'NONE', #86, #67, #50, .T. ) ;
#132 = DIRECTION ( 'NONE',  ( 0.0000000000000000000, -1.000000000000000000, 0.0000000000000000000 ) ) ;
#133 = LOCAL_TIME ( 10, 23, 56.00000000000000000, #40 ) ;
#134 = EDGE_LOOP ( 'NONE', ( #237, #44, #114, #63 ) ) ;
#135 = DIRECTION ( 'NONE',  ( 0.0000000000000000000, -1.000000000000000000, 0.0000000000000000000 ) ) ;
#136 = ADVANCED_FACE ( 'NONE', ( #224 ), #191, .F. ) ;
#137 = APPROVAL_ROLE ( '' ) ;
#138 = CC_DESIGN_APPROVAL ( #122, ( #106 ) ) ;
#139 = APPLICATION_CONTEXT ( 'configuration controlled 3d designs of mechanical parts and assemblies' ) ;
#140 = PERSON_AND_ORGANIZATION ( #160, #76 ) ;
#141 =( NAMED_UNIT ( * ) PLANE_ANGLE_UNIT ( ) SI_UNIT ( $, .RADIAN. ) );
#142 = CC_DESIGN_SECURITY_CLASSIFICATION ( #221, ( #211 ) ) ;
#143 = ORIENTED_EDGE ( 'NONE', *, *, #222, .F. ) ;
#144 = EDGE_CURVE ( 'NONE', #161, #59, #102, .T. ) ;
#145 = FACE_OUTER_BOUND ( 'NONE', #190, .T. ) ;
#146 = EDGE_CURVE ( 'NONE', #31, #161, #22, .T. ) ;
#147 = DATE_AND_TIME ( #35, #133 ) ;
#148 = FACE_OUTER_BOUND ( 'NONE', #217, .T. ) ;
#149 = PRODUCT_RELATED_PRODUCT_CATEGORY ( 'detail', '', ( #183 ) ) ;
#150 = CC_DESIGN_PERSON_AND_ORGANIZATION_ASSIGNMENT ( #92, #62, ( #106 ) ) ;
#151 = FACE_OUTER_BOUND ( 'NONE', #233, .T. ) ;
#152 = DIRECTION ( 'NONE',  ( -0.0000000000000000000, -0.0000000000000000000, 1.000000000000000000 ) ) ;
#153 = DIRECTION ( 'NONE',  ( -0.0000000000000000000, 0.0000000000000000000, 1.000000000000000000 ) ) ;
#154 = VECTOR ( 'NONE', #60, 1000.000000000000000 ) ;
#155 = PERSON_AND_ORGANIZATION_ROLE ( 'classification_officer' ) ;
#156 = CARTESIAN_POINT ( 'NONE',  ( 3.000000000000000000, -17.50000000000000000, 17.50000000000000000 ) ) ;
#157 = VECTOR ( 'NONE', #9, 1000.000000000000000 ) ;
#158 = CARTESIAN_POINT ( 'NONE',  ( 3.000000000000000000, 17.50000000000000000, 17.50000000000000000 ) ) ;
#159 = CARTESIAN_POINT ( 'NONE',  ( 3.000000000000000000, 17.50000000000000000, 17.50000000000000000 ) ) ;
#160 = PERSON ( 'UNSPECIFIED', 'UNSPECIFIED', 'UNSPECIFIED', ('UNSPECIFIED'), ('UNSPECIFIED'), ('UNSPECIFIED') ) ;
#161 = VERTEX_POINT ( 'NONE', #210 ) ;
#162 = ORIENTED_EDGE ( 'NONE', *, *, #38, .T. ) ;
#163 = ORIENTED_EDGE ( 'NONE', *, *, #131, .F. ) ;
#164 = CARTESIAN_POINT ( 'NONE',  ( 3.000000000000000000, -17.50000000000000000, 17.50000000000000000 ) ) ;
#165 = DIRECTION ( 'NONE',  ( -1.000000000000000000, -0.0000000000000000000, -0.0000000000000000000 ) ) ;
#166 = DIRECTION ( 'NONE',  ( -1.000000000000000000, -0.0000000000000000000, -0.0000000000000000000 ) ) ;
#167 = CC_DESIGN_DATE_AND_TIME_ASSIGNMENT ( #119, #99, ( #106 ) ) ;
#168 = APPROVAL_PERSON_ORGANIZATION ( #223, #176, #113 ) ;
#169 = ORIENTED_EDGE ( 'NONE', *, *, #144, .T. ) ;
#170 = DIRECTION ( 'NONE',  ( -0.0000000000000000000, 1.000000000000000000, 0.0000000000000000000 ) ) ;
#171 = MANIFOLD_SOLID_BREP ( 'Extrude1', #37 ) ;
#172 = APPROVAL_STATUS ( 'not_yet_approved' ) ;
#173 = ADVANCED_FACE ( 'NONE', ( #98 ), #64, .T. ) ;
#174 = LOCAL_TIME ( 10, 23, 56.00000000000000000, #89 ) ;
#175 = DIRECTION ( 'NONE',  ( 0.0000000000000000000, 0.0000000000000000000, -1.000000000000000000 ) ) ;
#176 = APPROVAL ( #32, 'UNSPECIFIED' ) ;
#177 = VECTOR ( 'NONE', #78, 1000.000000000000000 ) ;
#178 =( LENGTH_UNIT ( ) NAMED_UNIT ( * ) SI_UNIT ( .MILLI., .METRE. ) );
#179 =( NAMED_UNIT ( * ) SI_UNIT ( $, .STERADIAN. ) SOLID_ANGLE_UNIT ( ) );
#180 = PERSON_AND_ORGANIZATION ( #160, #76 ) ;
#181 = VECTOR ( 'NONE', #24, 1000.000000000000000 ) ;
#182 = ORIENTED_EDGE ( 'NONE', *, *, #118, .T. ) ;
#183 = PRODUCT ( 'Web Model 49754', 'Web Model 49754', '', ( #29 ) ) ;
#184 = DATE_AND_TIME ( #48, #174 ) ;
#185 = EDGE_LOOP ( 'NONE', ( #182, #53, #163, #82 ) ) ;
#186 = VECTOR ( 'NONE', #165, 1000.000000000000000 ) ;
#187 = CC_DESIGN_PERSON_AND_ORGANIZATION_ASSIGNMENT ( #3, #46, ( #211 ) ) ;
#188 = DIRECTION ( 'NONE',  ( 1.000000000000000000, 0.0000000000000000000, 0.0000000000000000000 ) ) ;
#189 =( GEOMETRIC_REPRESENTATION_CONTEXT ( 3 ) GLOBAL_UNCERTAINTY_ASSIGNED_CONTEXT ( ( #69 ) ) GLOBAL_UNIT_ASSIGNED_CONTEXT ( ( #178, #141, #179 ) ) REPRESENTATION_CONTEXT ( 'NONE', 'WORKASPACE' ) );
#190 = EDGE_LOOP ( 'NONE', ( #201, #225, #143, #208 ) ) ;
#191 = PLANE ( 'NONE',  #87 ) ;
#192 = CARTESIAN_POINT ( 'NONE',  ( 0.0000000000000000000, 17.50000000000000000, 17.50000000000000000 ) ) ;
#193 = CARTESIAN_POINT ( 'NONE',  ( 3.000000000000000000, 17.50000000000000000, 17.50000000000000000 ) ) ;
#194 = CC_DESIGN_APPROVAL ( #176, ( #211 ) ) ;
#195 = DIRECTION ( 'NONE',  ( 0.0000000000000000000, 0.0000000000000000000, 1.000000000000000000 ) ) ;
#196 = CARTESIAN_POINT ( 'NONE',  ( 0.0000000000000000000, -17.50000000000000000, 17.50000000000000000 ) ) ;
#197 = VECTOR ( 'NONE', #226, 1000.000000000000000 ) ;
#198 = CARTESIAN_POINT ( 'NONE',  ( 0.0000000000000000000, -17.50000000000000000, 17.50000000000000000 ) ) ;
#199 = PERSON_AND_ORGANIZATION ( #160, #76 ) ;
#200 = AXIS2_PLACEMENT_3D ( 'NONE', #56, #153, #188 ) ;
#201 = ORIENTED_EDGE ( 'NONE', *, *, #103, .T. ) ;
#202 = LINE ( 'NONE', #25, #177 ) ;
#203 = AXIS2_PLACEMENT_3D ( 'NONE', #41, #170, #128 ) ;
#204 = ORIENTED_EDGE ( 'NONE', *, *, #103, .F. ) ;
#205 = LOCAL_TIME ( 10, 23, 56.00000000000000000, #108 ) ;
#206 = APPROVAL ( #172, 'UNSPECIFIED' ) ;
#207 = LINE ( 'NONE', #93, #11 ) ;
#208 = ORIENTED_EDGE ( 'NONE', *, *, #57, .T. ) ;
#209 = PLANE ( 'NONE',  #200 ) ;
#210 = CARTESIAN_POINT ( 'NONE',  ( 3.000000000000000000, -17.50000000000000000, -17.50000000000000000 ) ) ;
#211 = PRODUCT_DEFINITION_FORMATION_WITH_SPECIFIED_SOURCE ( 'ANY', '', #183, .NOT_KNOWN. ) ;
#212 = VECTOR ( 'NONE', #13, 1000.000000000000000 ) ;
#213 = CARTESIAN_POINT ( 'NONE',  ( 0.0000000000000000000, 17.50000000000000000, 17.50000000000000000 ) ) ;
#214 = SECURITY_CLASSIFICATION_LEVEL ( 'unclassified' ) ;
#215 = ADVANCED_FACE ( 'NONE', ( #148 ), #216, .F. ) ;
#216 = PLANE ( 'NONE',  #23 ) ;
#217 = EDGE_LOOP ( 'NONE', ( #204, #94, #121, #129 ) ) ;
#218 = APPLICATION_PROTOCOL_DEFINITION ( 'international standard', 'config_control_design', 1994, #234 ) ;
#219 = PRODUCT_DEFINITION_SHAPE ( 'NONE', 'NONE',  #106 ) ;
#220 = LINE ( 'NONE', #192, #34 ) ;
#221 = SECURITY_CLASSIFICATION ( '', '', #214 ) ;
#222 = EDGE_CURVE ( 'NONE', #67, #31, #6, .T. ) ;
#223 = PERSON_AND_ORGANIZATION ( #160, #76 ) ;
#224 = FACE_OUTER_BOUND ( 'NONE', #185, .T. ) ;
#225 = ORIENTED_EDGE ( 'NONE', *, *, #72, .F. ) ;
#226 = DIRECTION ( 'NONE',  ( -1.000000000000000000, -0.0000000000000000000, -0.0000000000000000000 ) ) ;
#227 = VERTEX_POINT ( 'NONE', #196 ) ;
#228 = CARTESIAN_POINT ( 'NONE',  ( 0.0000000000000000000, -17.50000000000000000, -17.50000000000000000 ) ) ;
#229 = ADVANCED_FACE ( 'NONE', ( #145 ), #100, .F. ) ;
#230 = DIRECTION ( 'NONE',  ( 0.0000000000000000000, -0.0000000000000000000, -1.000000000000000000 ) ) ;
#231 = LOCAL_TIME ( 10, 23, 56.00000000000000000, #81 ) ;
#232 = ORIENTED_EDGE ( 'NONE', *, *, #146, .F. ) ;
#233 = EDGE_LOOP ( 'NONE', ( #19, #104, #232, #1 ) ) ;
#234 = APPLICATION_CONTEXT ( 'configuration controlled 3d designs of mechanical parts and assemblies' ) ;
#235 = APPROVAL_STATUS ( 'not_yet_approved' ) ;
#236 = PERSON_AND_ORGANIZATION_ROLE ( 'design_supplier' ) ;
#237 = ORIENTED_EDGE ( 'NONE', *, *, #222, .T. ) ;
ENDSEC;
END-ISO-10303-21;
