ISO-10303-21;
HEADER;
FILE_DESCRIPTION (( 'STEP AP203' ),
    '1' );
FILE_NAME ('34602_36956.step',
    '2017-08-24T13:11:39',
    ( '' ),
    ( '' ),
    'SwSTEP 2.0',
    'SolidWorks 2016',
    '' );
FILE_SCHEMA (( 'CONFIG_CONTROL_DESIGN' ));
ENDSEC;

DATA;
#1 = ORIENTED_EDGE ( 'NONE', *, *, #118, .T. ) ;
#2 = DIRECTION ( 'NONE',  ( 1.000000000000000000, 0.0000000000000000000, -0.0000000000000000000 ) ) ;
#3 = CIRCLE ( 'NONE', #174, 25.00000000000000000 ) ;
#4 = COORDINATED_UNIVERSAL_TIME_OFFSET ( 5, 0, .BEHIND. ) ;
#5 = CC_DESIGN_PERSON_AND_ORGANIZATION_ASSIGNMENT ( #79, #93, ( #97 ) ) ;
#6 = DIRECTION ( 'NONE',  ( 1.000000000000000000, 0.0000000000000000000, 0.0000000000000000000 ) ) ;
#7 = APPROVAL_PERSON_ORGANIZATION ( #45, #56, #37 ) ;
#8 = DIRECTION ( 'NONE',  ( 0.0000000000000000000, 0.0000000000000000000, 1.000000000000000000 ) ) ;
#9 = CARTESIAN_POINT ( 'NONE',  ( 0.0000000000000000000, 0.0000000000000000000, 0.0000000000000000000 ) ) ;
#10 = EDGE_CURVE ( 'NONE', #161, #119, #3, .T. ) ;
#11 = ORGANIZATION ( 'UNSPECIFIED', 'UNSPECIFIED', '' ) ;
#12 = CC_DESIGN_SECURITY_CLASSIFICATION ( #65, ( #91 ) ) ;
#13 = VERTEX_POINT ( 'NONE', #34 ) ;
#14 = ADVANCED_FACE ( 'NONE', ( #43 ), #111, .F. ) ;
#15 = LOCAL_TIME ( 9, 11, 39.00000000000000000, #166 ) ;
#16 = CIRCLE ( 'NONE', #151, 25.00000000000000000 ) ;
#17 = CC_DESIGN_PERSON_AND_ORGANIZATION_ASSIGNMENT ( #162, #59, ( #91 ) ) ;
#18 = CARTESIAN_POINT ( 'NONE',  ( 0.0000000000000000000, 0.0000000000000000000, 6.000000000000000000 ) ) ;
#19 = CALENDAR_DATE ( 2017, 24, 8 ) ;
#20 = DIRECTION ( 'NONE',  ( -0.0000000000000000000, -0.0000000000000000000, -1.000000000000000000 ) ) ;
#21 = FACE_OUTER_BOUND ( 'NONE', #153, .T. ) ;
#22 = APPLICATION_PROTOCOL_DEFINITION ( 'international standard', 'config_control_design', 1994, #159 ) ;
#23 = APPROVAL_PERSON_ORGANIZATION ( #155, #156, #75 ) ;
#24 = CC_DESIGN_APPROVAL ( #56, ( #86 ) ) ;
#25 = APPLICATION_PROTOCOL_DEFINITION ( 'international standard', 'config_control_design', 1994, #106 ) ;
#26 = DATE_AND_TIME ( #98, #15 ) ;
#27 = ORIENTED_EDGE ( 'NONE', *, *, #63, .F. ) ;
#28 = COORDINATED_UNIVERSAL_TIME_OFFSET ( 5, 0, .BEHIND. ) ;
#29 = CC_DESIGN_PERSON_AND_ORGANIZATION_ASSIGNMENT ( #138, #115, ( #86 ) ) ;
#30 = DATE_AND_TIME ( #19, #163 ) ;
#31 = CC_DESIGN_PERSON_AND_ORGANIZATION_ASSIGNMENT ( #55, #170, ( #91 ) ) ;
#32 = DIRECTION ( 'NONE',  ( 1.000000000000000000, 0.0000000000000000000, 0.0000000000000000000 ) ) ;
#33 = ORIENTED_EDGE ( 'NONE', *, *, #10, .T. ) ;
#34 = CARTESIAN_POINT ( 'NONE',  ( 25.00000000000000000, 3.061616997868383000E-015, 0.0000000000000000000 ) ) ;
#35 = CARTESIAN_POINT ( 'NONE',  ( 0.0000000000000000000, 0.0000000000000000000, 6.000000000000000000 ) ) ;
#36 = ADVANCED_BREP_SHAPE_REPRESENTATION ( '34602_36956', ( #74, #160 ), #149 ) ;
#37 = APPROVAL_ROLE ( '' ) ;
#38 = CLOSED_SHELL ( 'NONE', ( #132, #150, #95, #14 ) ) ;
#39 = DIRECTION ( 'NONE',  ( -1.000000000000000000, 0.0000000000000000000, 0.0000000000000000000 ) ) ;
#40 = APPROVAL_DATE_TIME ( #122, #123 ) ;
#41 = FACE_OUTER_BOUND ( 'NONE', #145, .T. ) ;
#42 = LOCAL_TIME ( 9, 11, 39.00000000000000000, #85 ) ;
#43 = FACE_OUTER_BOUND ( 'NONE', #108, .T. ) ;
#44 = CC_DESIGN_APPROVAL ( #123, ( #65 ) ) ;
#45 = PERSON_AND_ORGANIZATION ( #88, #11 ) ;
#46 = CYLINDRICAL_SURFACE ( 'NONE', #50, 25.00000000000000000 ) ;
#47 = AXIS2_PLACEMENT_3D ( 'NONE', #53, #144, #39 ) ;
#48 = SHAPE_DEFINITION_REPRESENTATION ( #136, #36 ) ;
#49 = DATE_TIME_ROLE ( 'classification_date' ) ;
#50 = AXIS2_PLACEMENT_3D ( 'NONE', #35, #140, #126 ) ;
#51 = DIRECTION ( 'NONE',  ( 1.000000000000000000, 0.0000000000000000000, 0.0000000000000000000 ) ) ;
#52 = AXIS2_PLACEMENT_3D ( 'NONE', #70, #167, #89 ) ;
#53 = CARTESIAN_POINT ( 'NONE',  ( 0.0000000000000000000, 0.0000000000000000000, 6.000000000000000000 ) ) ;
#54 = VECTOR ( 'NONE', #20, 1000.000000000000000 ) ;
#55 = PERSON_AND_ORGANIZATION ( #88, #11 ) ;
#56 = APPROVAL ( #141, 'UNSPECIFIED' ) ;
#57 = ORIENTED_EDGE ( 'NONE', *, *, #63, .T. ) ;
#58 = PRODUCT_RELATED_PRODUCT_CATEGORY ( 'detail', '', ( #97 ) ) ;
#59 = PERSON_AND_ORGANIZATION_ROLE ( 'creator' ) ;
#60 = DIRECTION ( 'NONE',  ( 1.000000000000000000, 0.0000000000000000000, 0.0000000000000000000 ) ) ;
#61 =( NAMED_UNIT ( * ) SI_UNIT ( $, .STERADIAN. ) SOLID_ANGLE_UNIT ( ) );
#62 = PERSON_AND_ORGANIZATION ( #88, #11 ) ;
#63 = EDGE_CURVE ( 'NONE', #161, #13, #131, .T. ) ;
#64 = EDGE_CURVE ( 'NONE', #119, #72, #164, .T. ) ;
#65 = SECURITY_CLASSIFICATION ( '', '', #128 ) ;
#66 = CIRCLE ( 'NONE', #147, 25.00000000000000000 ) ;
#67 = CARTESIAN_POINT ( 'NONE',  ( 0.0000000000000000000, 0.0000000000000000000, 0.0000000000000000000 ) ) ;
#68 = CALENDAR_DATE ( 2017, 24, 8 ) ;
#69 = CC_DESIGN_PERSON_AND_ORGANIZATION_ASSIGNMENT ( #62, #92, ( #65 ) ) ;
#70 = CARTESIAN_POINT ( 'NONE',  ( 0.0000000000000000000, 0.0000000000000000000, 6.000000000000000000 ) ) ;
#71 = APPROVAL_STATUS ( 'not_yet_approved' ) ;
#72 = VERTEX_POINT ( 'NONE', #102 ) ;
#73 = LOCAL_TIME ( 9, 11, 39.00000000000000000, #82 ) ;
#74 = MANIFOLD_SOLID_BREP ( 'Boss-Extrude1', #38 ) ;
#75 = APPROVAL_ROLE ( '' ) ;
#76 = CARTESIAN_POINT ( 'NONE',  ( 25.00000000000000000, 3.061616997868383000E-015, 6.000000000000000000 ) ) ;
#77 = ORIENTED_EDGE ( 'NONE', *, *, #165, .T. ) ;
#78 = MECHANICAL_CONTEXT ( 'NONE', #159, 'mechanical' ) ;
#79 = PERSON_AND_ORGANIZATION ( #88, #11 ) ;
#80 = CC_DESIGN_DATE_AND_TIME_ASSIGNMENT ( #26, #105, ( #86 ) ) ;
#81 = ORIENTED_EDGE ( 'NONE', *, *, #103, .T. ) ;
#82 = COORDINATED_UNIVERSAL_TIME_OFFSET ( 5, 0, .BEHIND. ) ;
#83 = CALENDAR_DATE ( 2017, 24, 8 ) ;
#84 = DIRECTION ( 'NONE',  ( 0.0000000000000000000, 0.0000000000000000000, 1.000000000000000000 ) ) ;
#85 = COORDINATED_UNIVERSAL_TIME_OFFSET ( 5, 0, .BEHIND. ) ;
#86 = PRODUCT_DEFINITION ( 'UNKNOWN', '', #91, #120 ) ;
#87 = CARTESIAN_POINT ( 'NONE',  ( -25.00000000000000000, 0.0000000000000000000, 6.000000000000000000 ) ) ;
#88 = PERSON ( 'UNSPECIFIED', 'UNSPECIFIED', 'UNSPECIFIED', ('UNSPECIFIED'), ('UNSPECIFIED'), ('UNSPECIFIED') ) ;
#89 = DIRECTION ( 'NONE',  ( 1.000000000000000000, 0.0000000000000000000, 0.0000000000000000000 ) ) ;
#90 = DATE_AND_TIME ( #68, #124 ) ;
#91 = PRODUCT_DEFINITION_FORMATION_WITH_SPECIFIED_SOURCE ( 'ANY', '', #97, .NOT_KNOWN. ) ;
#92 = PERSON_AND_ORGANIZATION_ROLE ( 'classification_officer' ) ;
#93 = PERSON_AND_ORGANIZATION_ROLE ( 'design_owner' ) ;
#94 = EDGE_LOOP ( 'NONE', ( #114, #57, #77, #109 ) ) ;
#95 = ADVANCED_FACE ( 'NONE', ( #21 ), #100, .T. ) ;
#96 = CC_DESIGN_DATE_AND_TIME_ASSIGNMENT ( #30, #49, ( #65 ) ) ;
#97 = PRODUCT ( '34602_36956', '34602_36956', '', ( #78 ) ) ;
#98 = CALENDAR_DATE ( 2017, 24, 8 ) ;
#99 = FACE_OUTER_BOUND ( 'NONE', #94, .T. ) ;
#100 = PLANE ( 'NONE',  #129 ) ;
#101 = DIRECTION ( 'NONE',  ( -0.0000000000000000000, -0.0000000000000000000, -1.000000000000000000 ) ) ;
#102 = CARTESIAN_POINT ( 'NONE',  ( -25.00000000000000000, 0.0000000000000000000, 0.0000000000000000000 ) ) ;
#103 = EDGE_CURVE ( 'NONE', #72, #13, #16, .T. ) ;
#104 = DIRECTION ( 'NONE',  ( 1.000000000000000000, 0.0000000000000000000, -0.0000000000000000000 ) ) ;
#105 = DATE_TIME_ROLE ( 'creation_date' ) ;
#106 = APPLICATION_CONTEXT ( 'configuration controlled 3d designs of mechanical parts and assemblies' ) ;
#107 = ORIENTED_EDGE ( 'NONE', *, *, #118, .F. ) ;
#108 = EDGE_LOOP ( 'NONE', ( #148, #110 ) ) ;
#109 = ORIENTED_EDGE ( 'NONE', *, *, #64, .F. ) ;
#110 = ORIENTED_EDGE ( 'NONE', *, *, #165, .F. ) ;
#111 = PLANE ( 'NONE',  #134 ) ;
#112 = DIRECTION ( 'NONE',  ( 0.0000000000000000000, 0.0000000000000000000, 1.000000000000000000 ) ) ;
#113 = CARTESIAN_POINT ( 'NONE',  ( 25.00000000000000000, 3.061616997868383000E-015, 6.000000000000000000 ) ) ;
#114 = ORIENTED_EDGE ( 'NONE', *, *, #10, .F. ) ;
#115 = PERSON_AND_ORGANIZATION_ROLE ( 'creator' ) ;
#116 = CARTESIAN_POINT ( 'NONE',  ( 0.0000000000000000000, 0.0000000000000000000, 0.0000000000000000000 ) ) ;
#117 = DATE_AND_TIME ( #83, #42 ) ;
#118 = EDGE_CURVE ( 'NONE', #119, #161, #139, .T. ) ;
#119 = VERTEX_POINT ( 'NONE', #87 ) ;
#120 = DESIGN_CONTEXT ( 'detailed design', #106, 'design' ) ;
#121 = VECTOR ( 'NONE', #101, 1000.000000000000000 ) ;
#122 = DATE_AND_TIME ( #168, #73 ) ;
#123 = APPROVAL ( #158, 'UNSPECIFIED' ) ;
#124 = LOCAL_TIME ( 9, 11, 39.00000000000000000, #28 ) ;
#125 = DIRECTION ( 'NONE',  ( 0.0000000000000000000, 0.0000000000000000000, 1.000000000000000000 ) ) ;
#126 = DIRECTION ( 'NONE',  ( -1.000000000000000000, 0.0000000000000000000, 0.0000000000000000000 ) ) ;
#127 =( NAMED_UNIT ( * ) PLANE_ANGLE_UNIT ( ) SI_UNIT ( $, .RADIAN. ) );
#128 = SECURITY_CLASSIFICATION_LEVEL ( 'unclassified' ) ;
#129 = AXIS2_PLACEMENT_3D ( 'NONE', #18, #112, #104 ) ;
#130 =( LENGTH_UNIT ( ) NAMED_UNIT ( * ) SI_UNIT ( .MILLI., .METRE. ) );
#131 = LINE ( 'NONE', #113, #121 ) ;
#132 = ADVANCED_FACE ( 'NONE', ( #99 ), #46, .T. ) ;
#133 = CYLINDRICAL_SURFACE ( 'NONE', #47, 25.00000000000000000 ) ;
#134 = AXIS2_PLACEMENT_3D ( 'NONE', #67, #137, #2 ) ;
#135 = UNCERTAINTY_MEASURE_WITH_UNIT (LENGTH_MEASURE( 1.000000000000000100E-005 ), #130, 'distance_accuracy_value', 'NONE');
#136 = PRODUCT_DEFINITION_SHAPE ( 'NONE', 'NONE',  #86 ) ;
#137 = DIRECTION ( 'NONE',  ( 0.0000000000000000000, 0.0000000000000000000, 1.000000000000000000 ) ) ;
#138 = PERSON_AND_ORGANIZATION ( #88, #11 ) ;
#139 = CIRCLE ( 'NONE', #52, 25.00000000000000000 ) ;
#140 = DIRECTION ( 'NONE',  ( -0.0000000000000000000, -0.0000000000000000000, -1.000000000000000000 ) ) ;
#141 = APPROVAL_STATUS ( 'not_yet_approved' ) ;
#142 = ORIENTED_EDGE ( 'NONE', *, *, #64, .T. ) ;
#143 = CC_DESIGN_APPROVAL ( #156, ( #91 ) ) ;
#144 = DIRECTION ( 'NONE',  ( -0.0000000000000000000, -0.0000000000000000000, -1.000000000000000000 ) ) ;
#145 = EDGE_LOOP ( 'NONE', ( #27, #107, #142, #81 ) ) ;
#146 = PERSON_AND_ORGANIZATION ( #88, #11 ) ;
#147 = AXIS2_PLACEMENT_3D ( 'NONE', #9, #8, #60 ) ;
#148 = ORIENTED_EDGE ( 'NONE', *, *, #103, .F. ) ;
#149 =( GEOMETRIC_REPRESENTATION_CONTEXT ( 3 ) GLOBAL_UNCERTAINTY_ASSIGNED_CONTEXT ( ( #135 ) ) GLOBAL_UNIT_ASSIGNED_CONTEXT ( ( #130, #127, #61 ) ) REPRESENTATION_CONTEXT ( 'NONE', 'WORKASPACE' ) );
#150 = ADVANCED_FACE ( 'NONE', ( #41 ), #133, .T. ) ;
#151 = AXIS2_PLACEMENT_3D ( 'NONE', #154, #125, #32 ) ;
#152 = CARTESIAN_POINT ( 'NONE',  ( 0.0000000000000000000, 0.0000000000000000000, 6.000000000000000000 ) ) ;
#153 = EDGE_LOOP ( 'NONE', ( #1, #33 ) ) ;
#154 = CARTESIAN_POINT ( 'NONE',  ( 0.0000000000000000000, 0.0000000000000000000, 0.0000000000000000000 ) ) ;
#155 = PERSON_AND_ORGANIZATION ( #88, #11 ) ;
#156 = APPROVAL ( #71, 'UNSPECIFIED' ) ;
#157 = APPROVAL_PERSON_ORGANIZATION ( #146, #123, #172 ) ;
#158 = APPROVAL_STATUS ( 'not_yet_approved' ) ;
#159 = APPLICATION_CONTEXT ( 'configuration controlled 3d designs of mechanical parts and assemblies' ) ;
#160 = AXIS2_PLACEMENT_3D ( 'NONE', #116, #171, #51 ) ;
#161 = VERTEX_POINT ( 'NONE', #76 ) ;
#162 = PERSON_AND_ORGANIZATION ( #88, #11 ) ;
#163 = LOCAL_TIME ( 9, 11, 39.00000000000000000, #4 ) ;
#164 = LINE ( 'NONE', #169, #54 ) ;
#165 = EDGE_CURVE ( 'NONE', #13, #72, #66, .T. ) ;
#166 = COORDINATED_UNIVERSAL_TIME_OFFSET ( 5, 0, .BEHIND. ) ;
#167 = DIRECTION ( 'NONE',  ( 0.0000000000000000000, 0.0000000000000000000, 1.000000000000000000 ) ) ;
#168 = CALENDAR_DATE ( 2017, 24, 8 ) ;
#169 = CARTESIAN_POINT ( 'NONE',  ( -25.00000000000000000, 0.0000000000000000000, 6.000000000000000000 ) ) ;
#170 = PERSON_AND_ORGANIZATION_ROLE ( 'design_supplier' ) ;
#171 = DIRECTION ( 'NONE',  ( 0.0000000000000000000, 0.0000000000000000000, 1.000000000000000000 ) ) ;
#172 = APPROVAL_ROLE ( '' ) ;
#173 = APPROVAL_DATE_TIME ( #90, #156 ) ;
#174 = AXIS2_PLACEMENT_3D ( 'NONE', #152, #84, #6 ) ;
#175 = APPROVAL_DATE_TIME ( #117, #56 ) ;
ENDSEC;
END-ISO-10303-21;
